Home » B » Bleu Edmondson »

Bleu Edmondson - $50 And A Flask Of Crown Tabs

Artists:  A B C D E F G H I J K L M N O P Q R S T U V W X Y Z # 

$50 And A Flask Of Crown Tabs

(ver. 2) Click to play this song!
Bleu Edmondson
(Different)
 
e------------------------0-0--|
b------------------------0-0--|
g-----------------------------|
d----------------------2------|
a-----------2-—2-0-0h4--------|
e--0-2b-0-4------------------|

e---------------------------|
b---------------------------|
g---------------------------|
d---------------------------|
a-----------2-22222-0-------|
e--0-2b-0-4-----------2b-0--|
 
            
Submit corrections

↑ Back to top | Tablatures and chords for acoustic guitar and electric guitar, ukulele, drums are parodies/interpretations of the original songs. You may use it for private study, scholarship, research or language learning purposes only