Home » B » Black Tide »

Black Tide - Warriors Of Time Tabs

Artists:  A B C D E F G H I J K L M N O P Q R S T U V W X Y Z # 

Warriors Of Time Tabs

(ver. 2) Click to play this song!
Black Tide
(Intro)
This is the intro to Black Tide's Warriors Of Time. This is my first tab, so enjoy :)


E--1---1-0---0-------------------------------------------------------------|
B--3-------3---------------------------------------5/8-6-5h6p5-------------|
G--2-2---------3---3/5-3-2h3p2-----------------5---------------5-----------|
D--0-----------3-3-------------3-3---3/5-3-2-3-5-5-------------------------|
A--------------1-----------------3-3-----------3---------------------------|
E--------------------------------1-----------------------------------------|

E--1-1--1-0---0------------------------------------------------------------|
B--3-3------3-----------------------------------------5/8-6-5h6p5----------|
G--2-2-2--------3-3---3/5-3-2h3p2-----------------5---------------5--------|
D--0-0----------3-3-3-------------3-3---3/5-3-2-3-5-5----------------------|
A---------------1-1-----------------3-3-----------3------------------------|
E-----------------------------------1--------------------------------------|

The awesome WHOA part

E--------------------------------------------------------------------------|
B--------------------------------------------------------------------------|
G--7--9--10--3------9--10--------14--12--9--7--5---------------------------|
D--7--9--10--3------9--10--3-----14--12--9--7--5---------------------------|
A--5--7--8---1------7--8---3-----12--10--7--5--3---------------------------|
E--------------------------1-----------------------------------------------|
            
Submit corrections

↑ Back to top | Tablatures and chords for acoustic guitar and electric guitar, ukulele, drums are parodies/interpretations of the original songs. You may use it for private study, scholarship, research or language learning purposes only