Home » B » Black Tide »

Black Tide - That Fire Tabs

Artists:  A B C D E F G H I J K L M N O P Q R S T U V W X Y Z # 

That Fire Tabs

(ver. 1) Click to play this song!
Black Tide
----------------------------------------------------------------------------
                                 That Fire
                                 Black Tide
----------------------------------------------------------------------------

To start off, I just am amazed on how much Black Tide has changed, and I do think it was
helpful. Their new album is so incredible! I started learning this song a couple days
after it came out, and knew it was going to be a great song to play. Because I thought
it would be difficult for someone to learn it by ear, I thought I would just make the tabs
for it along with the covers. Enjoy!

NOTE: The acoustic part is different from my cover, and is the CORRECT way thanks to - 
(farmerjon1988) - for helping me out with it.

Username: dkm817 (same on X box live)

Tab Guide...

==================================================================
(end of measures)

==================================================================
==================================================================
(end of parts)

==================================================================
==================================================================
==================================================================
(end of song)

(If there is a “continued” it is because the numbers could not
fit on 1 line.)

Guitar 1 Rhythmic         (C G C F A D) [I know they play in Standard D,
Guitar 2 Lead             (C G C F A D)  but I tab songs in Drop C if it
Guitar 3 Back up          (C G C F A D)  is possible to play.]
Guitar 4 Acoustic         (E A D G B E) - Standard Tuning

Intro 1

Guitar 1 & 2
D-7~~~~~~~\~~~~~~~~~~~~~~~------------------------------------7~~-|
A-7~~~~~~~\~~~~~~~~~~~~~~~------------------------------------7~~-|
F-x-----------------------------------------------------------x---|
C-6~~~~~~~\~~~~~~~~~~~~~~~------------------------------------6~~-|
G-6~~~~~~~\~~~~~~~~~~~~~~~------------------------------------6~~-|
C-6~~~~~~~\~~~~~~~~~~~~~~~------------------------------------6~~-|

Guitar 4
E-2~~-2-2-x-x-2~~-2-2-x-x-2-2-x-x-2~~-2-2-x-x-2~~-2-2-x-x-2-2-x-x-|
B-5~~-5-5-x-x-5~~-5-5-x-x-5-5-x-x-4~~-4-4-x-x-4~~-4-4-x-x-4-4-x-x-|
G-2~~-2-2-x-x-2~~-2-2-x-x-2-2-x-x-2~~-2-2-x-x-2~~-2-2-x-x-2-2-x-x-|
D-4~~-4-4-x-x-4~~-4-4-x-x-4-4-x-x-4~~-4-4-x-x-4~~-4-4-x-x-4-4-x-x-|
A-2~~-2-2-x-x-2~~-2-2-x-x-2-2-x-x-2~~-2-2-x-x-2~~-2-2-x-x-2-2-x-x-|
E-----------------------------------------------------------------|

==================================================================

Guitar 1 & 2
D-7~~~~~~~\~~~~~~~~~~~~~~~----------------------------------------|
A-7~~~~~~~\~~~~~~~~~~~~~~~----------------------------------------|
F-x---------------------------------------------------------------|
C-6~~~~~~~\~~~~~~~~~~~~~~~----------------------------------------|
G-6~~~~~~~\~~~~~~~~~~~~~~~----------------------------------------|
C-6~~~~~~~\~~~~~~~~~~~~~~~----------------------------------------|

Guitar 4
E-2~~-2-2-x-x-2~~-2-2-x-x-2-2-x-x-2~~-2-2-x-x-2~~-2-2-x-x-2-2-x-x-|
B-5~~-5-5-x-x-5~~-5-5-x-x-5-5-x-x-4~~-4-4-x-x-4~~-4-4-x-x-4-4-x-x-|
G-2~~-2-2-x-x-2~~-2-2-x-x-2-2-x-x-2~~-2-2-x-x-2~~-2-2-x-x-2-2-x-x-|
D-4~~-4-4-x-x-4~~-4-4-x-x-4-4-x-x-4~~-4-4-x-x-4~~-4-4-x-x-4-4-x-x-|
A-2~~-2-2-x-x-2~~-2-2-x-x-2-2-x-x-2~~-2-2-x-x-2~~-2-2-x-x-2-2-x-x-|
E-----------------------------------------------------------------|

==================================================================

Guitar 1 & 2
D-7~~~~~~~\~~~~~~~~~~~~~~~----7~~-7~~~~~~~\~~~~~~~~~~~~~~~--------|
A-7~~~~~~~\~~~~~~~~~~~~~~~----7~~-7~~~~~~~\~~~~~~~~~~~~~~~--------|
F-x---------------------------x---x-------------------------------|
C-6~~~~~~~\~~~~~~~~~~~~~~~----6~~-6~~~~~~~\~~~~~~~~~~~~~~~--------|
G-6~~~~~~~\~~~~~~~~~~~~~~~----6~~-6~~~~~~~\~~~~~~~~~~~~~~~--------|
C-6~~~~~~~\~~~~~~~~~~~~~~~----6~~-6~~~~~~~\~~~~~~~~~~~~~~~--------|

Guitar 4
E-2~~-2-2-x-x-2~~-2-2-x-x-2-2-x-x-2~~-2-2-x-x-2~~-2-2-x-x-2-2-x-x-|
B-5~~-5-5-x-x-5~~-5-5-x-x-5-5-x-x-4~~-4-4-x-x-4~~-4-4-x-x-4-4-x-x-|
G-2~~-2-2-x-x-2~~-2-2-x-x-2-2-x-x-2~~-2-2-x-x-2~~-2-2-x-x-2-2-x-x-|
D-4~~-4-4-x-x-4~~-4-4-x-x-4-4-x-x-4~~-4-4-x-x-4~~-4-4-x-x-4-4-x-x-|
A-2~~-2-2-x-x-2~~-2-2-x-x-2-2-x-x-2~~-2-2-x-x-2~~-2-2-x-x-2-2-x-x-|
E-----------------------------------------------------------------|

==================================================================

D-7~~~~~~~\~~~~~~~~~~~~~~~----7~~-7~~~~~~~\~~~~~~~~~~~~~~~--------|
A-7~~~~~~~\~~~~~~~~~~~~~~~----7~~-7~~~~~~~\~~~~~~~~~~~~~~~--------|
F-x---------------------------x---x-------------------------------|
C-6~~~~~~~\~~~~~~~~~~~~~~~----6~~-6~~~~~~~\~~~~~~~~~~~~~~~--------|
G-6~~~~~~~\~~~~~~~~~~~~~~~----6~~-6~~~~~~~\~~~~~~~~~~~~~~~--------|
C-6~~~~~~~\~~~~~~~~~~~~~~~----6~~-6~~~~~~~\~~~~~~~~~~~~~~~--------|

Guitar 4
E-2~~-2-2-x-x-2~~-2-2-x-x-2-2-x-x-2~~-2-2-x-x-2~~-2-2-x-x-2-2-x-x-|
B-5~~-5-5-x-x-5~~-5-5-x-x-5-5-x-x-4~~-4-4-x-x-4~~-4-4-x-x-4-4-x-x-|
G-2~~-2-2-x-x-2~~-2-2-x-x-2-2-x-x-2~~-2-2-x-x-2~~-2-2-x-x-2-2-x-x-|
D-4~~-4-4-x-x-4~~-4-4-x-x-4-4-x-x-4~~-4-4-x-x-4~~-4-4-x-x-4-4-x-x-|
A-2~~-2-2-x-x-2~~-2-2-x-x-2-2-x-x-2~~-2-2-x-x-2~~-2-2-x-x-2-2-x-x-|
E-----------------------------------------------------------------|

==================================================================
==================================================================

Intro 2

Guitar 4
E-2~~~~~~~~~~~~~~~~~~~~~~~~~~~~~~-2~~~~~~~~~~~~~~~~~~~~~~~~~~~~~~-
B-5~~~~~~~~~~~~~~~~~~~~~~~~~~~~~~-4~~~~~~~~~~~~~~~~~~~~~~~~~~~~~~-
G-2~~~~~~~~~~~~~~~~~~~~~~~~~~~~~~-2~~~~~~~~~~~~~~~~~~~~~~~~~~~~~~-
D-4~~~~~~~~~~~~~~~~~~~~~~~~~~~~~~-4~~~~~~~~~~~~~~~~~~~~~~~~~~~~~~-
A-2~~~~~~~~~~~~~~~~~~~~~~~~~~~~~~-2~~~~~~~~~~~~~~~~~~~~~~~~~~~~~~-
E-----------------------------------------------------------------

==================================================================

Guitar 4
E-2~~~~~~~~~~~~~~~~~~~~~~~~~~~~~~-2~~~~~~~~~~~~~~~~~~~~~~~~~~~~~~-
B-5~~~~~~~~~~~~~~~~~~~~~~~~~~~~~~-4~~~~~~~~~~~~~~~~~~~~~~~~~~~~~~-
G-2~~~~~~~~~~~~~~~~~~~~~~~~~~~~~~-2~~~~~~~~~~~~~~~~~~~~~~~~~~~~~~-
D-4~~~~~~~~~~~~~~~~~~~~~~~~~~~~~~-4~~~~~~~~~~~~~~~~~~~~~~~~~~~~~~-
A-2~~~~~~~~~~~~~~~~~~~~~~~~~~~~~~-2~~~~~~~~~~~~~~~~~~~~~~~~~~~~~~-
E-----------------------------------------------------------------

==================================================================
==================================================================

Bridge

Guitar 1
D-----------------------------------------------------------------|
A-----------------------------------------------------------------|
F-----------------------------------------------------------------|
C-6~~~~-4~~~~-6~~-9~~~~~~-6~~~~~~~\~~-----------------------------|
G-6~~~~-4~~~~-6~~-9~~~~~~-6~~~~~~~\~~-4-6-*4~~~~~-----2-4---------|
C-6~~~~-4~~~~-6~~-9~~~~~~-6~~~~~~~\~~-------------4-4-----4~~~~~~-|
pm                                                . .

Guitar 2
D-----------------------------------------------------------------|
A-----------------------------------------------------------------|
F-----------------------------------------------------------------|
C-6~~~~-4~~~~-6~~-9~~~~~~-6~~~~~~~\~~-----------------------------|
G-6~~~~-4~~~~-6~~-9~~~~~~-6~~~~~~~\~~-4-6-4~~~~~~-----2-4---------|
C-6~~~~-4~~~~-6~~-9~~~~~~-6~~~~~~~\~~-------------4-4-----4~~~~~~-|
pm             
            
Submit corrections

↑ Back to top | Tablatures and chords for acoustic guitar and electric guitar, ukulele, drums are parodies/interpretations of the original songs. You may use it for private study, scholarship, research or language learning purposes only