Home » B » Black Tide »

Black Tide - Show Me The Way Tabs

Artists:  A B C D E F G H I J K L M N O P Q R S T U V W X Y Z # 

Show Me The Way Tabs

(ver. 1) Click to play this song!
Black Tide
(Intro)
Black Tide
Show Me The Way

Drop D

Intro
----------------------------------------------------------------------|
----------------------------------------------------------------------|
----------------------------------------------------------------------|
----------------------------------------------------------------------|
------------------------------------5--3--0---------------------------|
--0--3--0----5--6--7-----0--3--0--------------------------------------|

-----------------------------------------------------------------------|
-----------------------------------------------------------------------|
-----------------------------------------------------------------------|
-------------------------6--6--x---3--3--------------------------------|
-------------------------6--6--x---3--3--------------------------------|
--0--3--0----5--6--7-----6--6--x---3--3--------------------------------|

Pinch Harmonics on this part
-----------------------------------------------------------------------|
-----------------------------------------------------------------------|
-----------------------------------------------------------------------|
---3----------5--------6--------5--3-------3--------5--------6---5---3-|
5-----5--5-------5--5-----5--5---------3-------3--3-----3--3-----------|
-----------------------------------------------------------------------|
            
Submit corrections

↑ Back to top | Tablatures and chords for acoustic guitar and electric guitar, ukulele, drums are parodies/interpretations of the original songs. You may use it for private study, scholarship, research or language learning purposes only