Home » B » Black Tide »

Black Tide - Black Abyss Tabs

Artists:  A B C D E F G H I J K L M N O P Q R S T U V W X Y Z # 

Black Abyss Tabs

(ver. 2) Click to play this song!
Black Tide
(Intro)

Band:Black Tide
Tuning:Standard



|-------------------------------------------------------------------------|
|-------------------------------------------------------------------------|
|-------------------------------------------------------------------------|
|-------------------------------------------------------------------------|
|--------------5----8p7---8/10-8---4fb------------------------------------|
|-------0-0-0---------------------------6---------------------------------|
      P.M...........


|-------------------------------------------------------------------------|
|-------------------------------------------------------------------------|
|-------------------------------------------------------------------------|
|---------------------------------------7---------------------------------|
|--------------5----6p5---8/10-8-----5-7----------------------------------|
|-------0-0-0-------------------------------------------------------------|
       P.M...........


                      Key
            ________________________       
                fb-full bend
            
Submit corrections

↑ Back to top | Tablatures and chords for acoustic guitar and electric guitar, ukulele, drums are parodies/interpretations of the original songs. You may use it for private study, scholarship, research or language learning purposes only