Home » B » Black Sabbath »

Black Sabbath - Iron Man Tabs

Artists:  A B C D E F G H I J K L M N O P Q R S T U V W X Y Z # 

Iron Man Tabs

(ver. 3) Click to play this song!
Black Sabbath
Black Sabbath
Iron Man

I think youll find this is betta than 112% corretct as in no mistakes.
Play it and rock like Iommi!

Intro

e:----------------------------
b:----------------------------
g:----------------------------
d:----------------------------
a:----------------------------
e:0----^----2-----^------0--	Bend using string above nut or pre-bend down with tremlo and release

Main riff

e:------------------------------------------------------------------------------
b:------------------------------------------------------------------------------
g:--4------7----7---/9---9---12\11-12\11-12\11------9---7--/9--9
d:--4------7----7---/9---9---12\11-12\11-12\11------9---7--/9--9
a:--2------5----5---/7---7---10\ 9- 10\ 9-10\ 9-------7---5--/7--7
e:------------------------------------------------------------------------------

If  you listen carefully out of each speaker you'll hear (during the verse) the is an overlap of guitars (i.e. 2 guitars) so one speaker in the verse goes:

e:----------------------------------------------------------------------
b:----------------------------------------------------------------------
g:----------------------------------------------------------------------
d:----------------------------------------------------------------------
a:--2-----5---5---/7---7---10\9-10\9-10\9-----7---5---/7--7
e:----------------------------------------------------------------------

Interlude 1						Interlude 1.5

e:----------------------------------------------------			e:------------------------------------
b:----------------------------------------------------			b:-----------------------------------
g:----------------------------------------------------			g:-----------------------------------
d:----------------------------------------------------			d:------------------------------------
a:-----------5---------------------------------------			a:-------------5---------------------
e:---7--7------7--6--5--5--5\---0--4--5--5--6			e:-----7--7-------7--6--5--5--5--

Interlude 2

e:-------------------------------------------------------------------
b:-------------------------------------------------------------------
g:---9-------7-----------------------------------------------------
d:---9-------7------------------------------------------7--8--9--
a:---7-------5--------------------5---7----7--8--9-------------
e:------------------7---7----7------------------------------------

Interlude 3

e:-------------------------------------------------
b:-------------------------------------------------
g:-------------------------------------------------
d:---11---9--------------------------------------
a:-------------11---10---9---7-----------------
e:-----------------------------------7--7--h9--9

Solo 1

e:------------------------------------------------------------------------------------------------------------------------------------------------9----------------------------------------------------
b:------------------------------------------------------------------------------------------------------------------------------------------9----------12p9-----------9--9--9---------------------
g:-------------------------------------------------------------9-----------------9--9---------------------------------------------11--------------------------11-----9--9--9---------------------
d:---------------------------------------------9--9--9h11-----11p9---------------11p9-------9---11---11------------------------------------------------------------------11--9--9h11-
a:----------7--9--9p7-----7--9----9/11------------------------------11-------------------11---------------------------------------------------------------------------------------------------
e:---7h9----------------9-----------------------------------------------------------------------------------------------------------------------------------------------------------------------------

e:-----------------------9-----------------------------------------------------------------------9------------------12-(14)--14--12-(14)----9h12p9--------9------------------------------
b:--------------------9-----12p9---------9--12p9------9--12p9---------9--12--12-------12---9--9-------------------------------------------------12------12--12-(14)-12-(14)-
g:---9---11-(13)------------------11p9------------11-------------11p9----------13----------------------------------------------------------------------------------------------------------
d:------------------------------------------------------------------------------------------------------------------------------------------------------------------------------------------------------
a:------------------------------------------------------------------------------------------------------------------------------------------------------------------------------------------------------
e:------------------------------------------------------------------------------------------------------------------------------------------------------------------------------------------------------

e:---9--------------------9--------------------------------------------------------------------------------------------------------------
b:------12p9-------9--------12p9----------------------------------------------------------------------------------------------------
g:---------------11---------------------11---11p9-----------9--9--------------------------9--9------------------------------9----
d:-----------------------------------------------------------11---------11p9--------9h11-----------11p9----------9h11-------9
a:---------------------------------------------------------------------------------11------------------------------11--------------------
e:------------------------------------------------------------------------------------------------------------------------------------------

e:-----------------------------------------------------------------------------------------------------------------
b:-----------------------------------------------------------------------------------------------------------------
g:-----------------------------------------------------------------------------------------------------------------
d:---9h11------9h11------9h11--9h11--9h11------9h11------9h11------9h11--9h11--9h11--
a:-----------------------------------------------------------------------------------------------------------------
e:-----------------------------------------------------------------------------------------------------------------

Interlude 4

e:----------------------------------------------------------------------------------------------
b:----------------------------------------------------------------------------------------------
g:----------------------------------------------------------------------------------------------
d:-------------------------------------------------------------------4--5--4--5--4h5p4p0
a:----7----5----7-------------5h7p5-----------7---5----7--------------------------------
e:----------------------------------------------------------------------------------------------

Solo 2

e:-------------------------------------------------------------------------------------------------------------------------10---12-(14)-12(14)--12(14)---10-----------10----------------
b:-----------------------------------------------------------------------------------------------------8-------10/12---------------------------------------------------12----------12-----10-
g:------------------------------7------7-----9--9-(11)--9-(11)--9-(11)---7--------7--9----------9-----------------------------------------------------------------------------------------
d:--------------5------7/ 9-------9-------------------------------------------------9-------------------------------------------------------------------------------------------------------------
a:-----5-h7------7---------------------------------------------------------------------------------------------------------------------------------------------------------------------------------
e:----------------------------------------------------------------------------------------------------------------------------------------------------------------------------------------------------

e:---10-----------------------------------------------------------------------------------------------------------------------------------------------------------------------------------------
b:---------12--10------------10--------------------------------------------------------------------------------------------------------------------------------------------------------------
g:----------------------12-----------12-------9-------------------------------------------------------------------------------7-----7---9---9(12)--9(12)--9(12)--9(11)--9(11)---
d:-----------------------------------------------------12-----------/7------5---7p5-------5---7-----------5---7--7/ 9------9-----------------------------------------------------------
a:-----------------------------------------------------------------------------------------7-----------5---7-----------------------------------------------------------------------------------
e:-----------------------------------------------------------------------------------------------------------------------------------------------------------------------------------------------

e:------------------------------------------------------------------------------
b:------------------------------------------------------------------------------
g:---7h9p7-------7----------------------------------------------------------
d:--------------9--------7----5---7-----5---7----7(9)---7(9)---7(9)---5
a:-------------------------------------------------------------------------------
e:-------------------------------------------------------------------------------

end

e:--------------
b:--------------
g:--------------
d:--------------
a:---7---5---7\
e:---------------

And Thats it! as you can hear there is a third solo played over the second but it sounds good enough like that
The solos really aren't as hard as they look as they are based on the simple pentatonic scale but the hard thing is getting the stresses right to make it sound even better.
So the complete song goes:

Intro x3
Main x2
Verse x2
main x1
verse x 2
interlude 1 x2
interlude 1.5 x1
main x2
verse x2
interlude2 x2
main x2
verse x2
interlude2 x2
interlude3 x2
solo1 x1
interlude3 x2
interlude2 x4
main x2
verse x2
interlude1 x2
interlude1.5 x1
intro x2
interlude4 x2
solo2 x1
interlude4 x3
end x1

Obviously a fantastic song and if you havn't got it go buy their album "paranoid"!!!
oh and if anyone has heard of the small school band 3rd Nipple, i would just like to say they suck!!!!!!!!

lata
LuciferR

P.s. KILL THE STROKES!!!!
            
Submit corrections

↑ Back to top | Tablatures and chords for acoustic guitar and electric guitar, ukulele, drums are parodies/interpretations of the original songs. You may use it for private study, scholarship, research or language learning purposes only