Home » B » Black Sabbath »

Black Sabbath - Changes Bass

Artists:  A B C D E F G H I J K L M N O P Q R S T U V W X Y Z # 

Changes Bass

(ver. 3) Click to play this song!
Black Sabbath
00:09
VERSE 1
********
I feel unhappy, I feel so sad, I lost the best friend that I ever had
G|-------|-5-----|-------|-5-----|-------|-7-----|-------|-5-----|
D|-5---5-|---5---|-----5-|---5---|-----7-|---7---|-----5-|---5---|
A|---3---|-----3-|---3---|-----3-|-3-5---|-----5-|-5-3---|-----3-|
E|-------|-------|-3-----|-------|-------|-------|-------|-------|

She was my woman,   I loved her so. But it's too late now, I've let her go
G|-------|-5-----|-------|-5-----|-------|-7-----|-----|-5-----|
D|-----5-|---5---|-----5-|---5---|-----7-|---7---|-----|---5---|
A|---3---|-----3-|---3---|-----3-|-3-5---|-----5-|-5-3-|-----3-|
E|-3-----|-------|-3-----|-------|-------|-------|-----|-------|


----------------------
00:47
CHORUS
*******
         I'm   going through changes           I'm      going through changes   
G|------------------------------------------|------------------------------------|
D|----------------------------------------7-|----------------------------7-----7-|
A|-3--8--------7-------------5---------5----|-8---------7-------------5-----5----|
E|------------------------------------------|------------------------------------|
                                                                     h
G|---------------------------------|--------------------------|-----7-9-9-9-|
D|---------------9------------7----|-7--5---5--------7---s----|-5-7---------|
A|-8---------7-------------5-----5-|----------8---------5\7---|-------------|
E|---------------------------------|------------------------5-|-------------|

G|-------|--h----|-------|-5-----|
D|-5---5-|-3-5---|-5---5-|---5---|
A|---3---|-----3-|---3---|-----3-|
E|-------|-------|-------|-------|


----------------------
01:32
VERSE 2
********   
We shared the years, we shared each day,  In love together we found a way,
                            h 
G|-----|-5-----|-------|---3-5---|-------|-7-----|--h------|-5-----|
D|-5---|---5---|-5---5-|-5-------|-----7-|---7---|-5-7---5-|---5---|
A|---3-|-----3-|---3---|-------3-|-3-5---|-----5-|-----3---|-----3-|
E|-----|-------|-------|---------|-------|-------|---------|-------|

But soon the world    had its evil way, My heart was blinded, Love went astray
G|-------|-5-----|-------|--h----|-------|-7-----|-------|-5-----|
D|-5---5-|---5---|-5---5-|-3-5---|-----7-|---7---|-----5-|---5---|
A|---3---|-----3-|---3---|-----3-|-3-5---|-----5-|-5-3---|-----3-|
E|-------|-------|-------|-------|-------|-------|-------|-------|


----------------------
02:09
CHORUS
*******
         I'm   going through changes           I'm      going through changes   
G|------------------------------------------|------------------------------------|
D|-------------------9------------7-------7-|-----------------9----------7-----7-|
A|-3--8--------7-------------5---------5----|-8---------7-------------5-----5----|
E|------------------------------------------|------------------------------------|
                                                                     
G|---------------------------------|--------------------------|-------------|
D|---------------9------------7----|-7--5---5--------7---s----|-5-7--h------|
A|-8---------7-------------5-----5-|----------8---------5\7---|-----5-7-7-7-|
E|---------------------------------|------------------------5-|-------------|
                                  02:57
G|-------|--h----|-------|-5-----|-------|-7-----|-------|--h----|
D|-5---5-|-3-5---|-5---5-|---5---|-----7-|---7---|-----5-|-3-5---|
A|---3---|-----3-|---3---|-----3-|-3-5---|-----5-|-5-3---|-----3-|
E|-------|-------|-------|-------|-------|-------|-------|-------|

G|-------|-5-----|-------|-5-----|
D|-5---5-|---5---|-5---5-|---5---|
A|---3---|-----3-|---3---|-----3-|
E|-------|-------|-------|-------|


----------------------
03:15
VERSE 3
********
It took so long   to realize,   And I can still hear her last goodbyes
G|-------|-5-----|-------|--h----|-------|-7-----|--h----|-5-----|
D|-5---5-|---5---|-5---5-|-3-5---|-----7-|---7---|-5-7---|---5---|
A|---3---|-----3-|---3---|-----3-|-3-5---|-----5-|-----3-|-----3-|
E|-------|-------|-------|-------|-------|-------|-------|-------|

Now all my days   are filled with tears,  Wish I could go back and change these years 
G|-------|-5-----|-------|--h----|-------|-7-----|-------|-5-----|
D|-5---5-|---5---|-5---5-|-3-5---|-----7-|---7---|-----5-|---5---|
A|---3---|-----3-|---3---|-----3-|-3-5---|-----5-|-5-3---|-----3-|
E|-------|-------|-------|-------|-------|-------|-------|-------|

 
----------------------
03:50
CHORUS
*******
         I'm   going through changes           I'm      going through changes   
G|------------------------------------------|------------------------------------|
D|-------------------9------------7-------7-|-----------------9----------7-----7-|
A|-3--8--------7-------------5---------5----|-8---------7-------------5-----5----|
E|------------------------------------------|------------------------------------|
                                                                     h             h
G|---------------------------------|--------------------------|-----7-9-9-9-|-----7-9-9-9-|------------|
D|---------------9------------7----|-7--5---5--------7---s----|-5-7---------|-5-7---------|-5-7---s----|
A|-8---------7-------------5-----5-|----------8---------5\7---|-------------|-------------|------5\7---|
E|---------------------------------|------------------------5-|-------------|-------------|----------5-|            
Submit corrections

↑ Back to top | Tablatures and chords for acoustic guitar and electric guitar, ukulele, drums are parodies/interpretations of the original songs. You may use it for private study, scholarship, research or language learning purposes only