» » »

Black Label Society - Blessed Hell Ride Tabs

Artists:  A B C D E F G H I J K L M N O P Q R S T U V W X Y Z # 

Blessed Hell Ride Tabs

(ver. 1) Click to play this song!
Black Label Society
 Rating:
4/5 (4 votes)

 Blessed Hell Ride lessons Tabs too difficult? Try these video lessons and learn fast
 
                The blessed hellride by black label society
Dropped d tuning
Didn’t include strum pattern and I could use some help if you have it
Intro and verse
|-------2------1----1----------------------------
|-------3------1----1----------------------------
|-------2------2----0----------------------------
|-------0------3----2----------------------------
|-3-5-0------------------------------------------
|-0-0-0------------------------------------------
before chorus
|-2--------2^3-2--2-0-2--------------------------
|-3--------3------3-0-3--------------------------
|-2--------2------2-0-2--------------------------
|-0--------0------0-0-0--------------------------
|------------------------------------------------
|------------------------------------------------
chorus not too sure about
|------------fill the rest with above part-------
|------------------------------------------------
|-7----5-----------------------------------------
|-5----3-----------------------------------------
|-5----3-----------------------------------------
|-5----3-----------------------------------------
didn’t get solo yet need some help
            
Submit corrections


        Blessed Hell Ride lessons Hard to play? Try these video lessons and learn fast Blessed Hell Ride lessons
        
↑ Back to top | Tablatures and chords for acoustic guitar and electric guitar, ukulele, drums are parodies/interpretations of the original songs. You may use it for private study, scholarship, research or language learning purposes only