» » »

Black Label Society - Lords Of Destruction Tabs

Artists:  A B C D E F G H I J K L M N O P Q R S T U V W X Y Z # 

Lords Of Destruction Tabs

(ver. 1) Click to play this song!
Black Label Society
 Rating:
4/5 (4 votes)

 Lords Of Destruction lessons Tabs too difficult? Try these video lessons and learn fast
 
                Tuning: A a d g b e

2 Guitars


Guitar 1

e----------------------------------------
b----------------------------------------
g----------------------------------------
d----------------------------------------
a-0---5--3---0---------------------------
A-0---5--3---0---------------------------
repeat




Guitar 2
 1 step
e------|----------------|------------------
b--4---|-----4----------|--11--------------
g--6^--|-----6----------|--14^--------------
d------|-bend-down-to-6-|------------------
a------|----------------|------------------
A------|----------------|------------------
 1st     2nd time         3rd time      



|-------------------------------------------------------------|
|-------------------------------------------------------------|
|---------------------------------5----8----------------------|
|---------------------------------5----8----------------------|
|---------------------------------3----6----------------------|
|-0-0-0-0-0-0-0-0-0---0-0-0-0-----3----6----------------------|



|-------------------------------------------------------------|
|-------------------------------------------------------------|
|--------------------------------8-------3--------------------|
|--------------------------------8-------3--------------------|
|--------------------------------6-------1--------------------|
|-0-0-0-0-0-0-0-0-0---0-0-0-0----6-------1--------------------|



|-------------------------|------------------------------------|
|-------------------------|------------------------------------|
|----------------------8--|-----------------------3------------|
|----------------------8--|-----------------------3------------|
|-0-0-0-0-0-0----------6--|-0-0-0-0-0-0-----------1------------|
|-0-0-0-0-0-0----------6--|-0-0-0-0-0-0-----------1------------|

Chorus
|--------------------------------------------------------------|
|--------------------------------------------------------------|
|---------------------------------15---------------------------|
|---------------------------------15---------------------------|
|-0-0-----------------------------13---------------------------|
|-0-0--12-0-13-0---0-0-12-0-13-0--13---0-12-13-0-13-12-0-0--3^-|



|--------------------------------------------------------------|
|--------------------------------------------------------------|
|----------------------8---------------------------------------|
|----------------------8---------------------------------------|
|----------------------6---------------------------------------|
|-0-0-12-0-13-0--0-0---6---------------------------------------|


Lords Of......
|-------------------------------------------------------------|
|-------------------------------------------------------------|
|-------------------------------------------------------------|
|-0---6--5---3--5--3-------6-5-1------------------------------|
|-0---6--5---3--5--3----0--6-5-1------------------------------|
|-0---6--5---3--5--3----0--6-5-1------------------------------|
            
Submit corrections


        Lords Of Destruction lessons Hard to play? Try these video lessons and learn fast Lords Of Destruction lessons
        
↑ Back to top | Tablatures and chords for acoustic guitar and electric guitar, ukulele, drums are parodies/interpretations of the original songs. You may use it for private study, scholarship, research or language learning purposes only