» » »

Black Label Society - Fire It Up Tabs

Artists:  A B C D E F G H I J K L M N O P Q R S T U V W X Y Z # 

Fire It Up Tabs

(ver. 3) Click to play this song!
Black Label Society
 Rating:
4/5 (4 votes)

 Fire It Up lessons Tabs too difficult? Try these video lessons and learn fast
 
                

 Generated by Fast Tab, do not erase
====================================
Artist          : Zakk Wylde´s Black Label Society
Bass Performance: Fire it up
                  IT`S THE FIRST TAB INCLUDING THE SOLO!

---
Symbols explanations:
  h: hammer on  P: pull off
  .: palm mute  ^: bend
  \: slide up   /: slide down
 ~~: vibrato    P.H: Pinch harmonic
  t: tap        T: Trill
====================

Tuning:
Eb------------------|
Ab------------------|
Db------------------|
Gb------------------|
Bb------------------|
eb------------------|
====================

Intro: Talkbox sounds
|---------------------------------------------------|
|---------------------------------------------------|
|---------------------------------------------------|
|---------------------------------------------------|
|---2/3-2-0---------2/3-2-0-------2/3-2-0-----------|
|-----------2-0-------------2-0-----------0-2-------|

Verse Riff (Riff 1):
 						                 X 3 | Fill:
|--------------------------------------------------------------------|---------------------------|
|--------------------------------------------------------------------|---------------------------|
|--------------------------------------------------------------------|---------------------------|
|-------------------------------------------4-4-4--------------------|-3h5P0h3h5P0h3h5P0h3h5P0---|
|-4-4-4-4-4-4-4-4-4-4-4-4-4-4-4----2-2-2-22-2-2-2-4-4-4-4-4-4-4-44---|---------------------------|
|-2-2-2-2-2-2-2-2-2-2-2-2-2-2-2-00-0-0-0-00-------2-2-2-2-2-2-2-22---|---------------------------|
    .   .   .   .   .   .   .      . . .          .   .   .   .

  Fire it up...                      It´s time to burn it down
|---------------------------------------------------------------------|
|---------------------------------------------------------------------|
|---------------------------------------------------------------------|
|-------------------------------------------4-4-4---------------------|
|-4-4-4-4-4-4-4-4-4-4-4-4-4-4-4----2-2-2-22-2-2-2--4-4-4-4-4-4-4-44---|
|-2-2-2-2-2-2-2-2-2-2-2-2-2-2-2-00-0-0-0-00--------2-2-2-2-2-2-2-22---|
    .   .   .   .   .   .   .        .              . . . . . . .

 Keep moving on till the.....        Forever love it loud                 Yeah!
|--------------------------------------------------------------------||---------------------|
|--------------------------------------------------------------------||---------------------|
|--------------------------------------------------------------------||-5~~~----------------|
|-------------------------------------------4-4-4--------------------||---------------------|
|-4-4-4-4-4-4-4-4-4-4-4-4-4-4-4----2-2-2-22-2-2-2-4-4-4-4-4-4-4-44---||---------------------|
|-2-2-2-2-2-2-2-2-2-2-2-2-2-2-2-00-0-0-0-00-------2-2-2-2-2-2-2-22---||---------------------|
    .   .   .   .   .   .   .        .              . . . . . . .


|---------------------------------------------------------------------|
|---------------------------------------------------------------------|
|---------------------------------------------------------------------| x 2
|-------------------------------------------4-4-4---------------------|
|-4-4-4-4-4-4-4-4-4-4-4-4-4-4-4----2-2-2-22-2-2-2--4-4-4-4-4-4-4-44---|
|-2-2-2-2-2-2-2-2-2-2-2-2-2-2-2-00-0-0-0-00--------2-2-2-2-2-2-2-22---|
    .   .   .   .   .   .   .        .      . . .  .   .   .   .

Verse Riff 2:

 Hellfire, doom...                   Beyond the speed of sound
|---------------------------------------------------------------------|
|---------------------------------------------------------------------|
|---------------------------------------------------------------------| x 2
|-------------------------------------------4-4-4---------------------|
|-4-4-4-4-4-4-4-4-4-4-4-4-4-4-4----2-2-2-22-2-2-2--4-4-4-4-4-4-4-44---|
|-2-2-2-2-2-2-2-2-2-2-2-2-2-2-2-00-0-0-0-00--------2-2-2-2-2-2-2-22---|
    .   .   .   .   .   .   .        .      . . .  .   .   .   .
 Fire it up...                      It´s time to burn it down
|---------------------------------------------------------------------|
|---------------------------------------------------------------------|
|---------------------------------------------------------------------| x 2
|-------------------------------------------4-4-4---------------------|
|-4-4-4-4-4-4-4-4-4-4-4-4-4-4-4----2-2-2-22-2-2-2--4-4-4-4-4-4-4-44---|
|-2-2-2-2-2-2-2-2-2-2-2-2-2-2-2-00-0-0-0-00--------2-2-2-2-2-2-2-22---|
    .   .   .   .   .   .   .        .      . . .  .   .   .   .


Verse part 2:
        keep moving on...                  || -------------------------------| Bends
|------------------------------------------||--------------------------------|
|------------------------------------------||-5---7---9---12-----------------|
|------------------------------------------||-7^--9^-11^--10^----------------|
|------------------------------------------||--------------------------------|
|------------------------------------------||--------------------------------|
|-\17-----6~~~~~-------------6~~~~~--------||--------------------------------|


        keep moving on...                           ||-------------------| Bends
|---------------------------------------------------||-------------------|
|---------------------------------------------------||-5---7----9---12---|
|---------------------------------------------------||-7^--9^--11^--10^--|
|---------------------------------------------------||-------------------|
|-----------------------------------------\17-------||-------------------|
|-17/----6~~~~--------------6~~~~-------------------||-------------------|


Bridge:
   Face your fear...            Fill:
|------------------------------|-------------------------------------------------|
|------------------------------|-------------------------------------------------|
|------------------------------|-------------------------------------------------|
|------------------------------|-------------------------------------------------|
|--7~~~--9~~~------------------|-------------------------------------------------|
|--5~~~--7~~~--17\-------------|-0-2-0-2-[2]-0-2-0-2-[2]-0-2-0-2-[2]-0-2-0-2-[2]-|
                                        P.H         P.H         P.H         P.H


                                 OH YEAH!!!!!!
                                (Slide with your right hand)
|------------------------------|---------------------------|
|------------------------------|---------------------------|
|------------------------------|-3h5P0h3h5P0h3h5P0h3h5P0---|
|-2~~~--4~~~-4-4-4-4-----------|---------------------------|
|-0~~~--2~~~-2-2-2-2-----------|---------------------------|
|------------0-0-0-0-----------|---------------------------|


Solo:
|-------------------------|-17-15--13-12-10-13--------|sustain
|------------17--15--17---|---------------------------|
|-17~--16-16--------------|---------------------------|
|-------------------------|---------------------------|
|-------------------------|---------------------------|
|-------------------------|---------------------------|

|---\13-\13-\13--13-11-13-----|-19-19--19-17-14-16--\17------|
|-12--------------------------|------------------------------|
|-----------------------------|------------------------------|
|-----------------------------|------------------------------|
|-----------------------------|------------------------------|
|-----------------------------|------------------------------|


                      Tap these notes
 ^All Quickly         |
|---------------------10 13 15 10 13 15 10 13 15 10 13 15 10 13 15 10 13 15-|
|---10h12h14h10h12h14-------------------------------------------------------|
|-10------------------------------------------------------------------------|
|---------------------------------------------------------------------------|
|---------------------------------------------------------------------------|
|---------------------------------------------------------------------------|

10 13 15 10 13 15 10 13 15 10 13 15 10 13 15 10 13 15
-----------------------------------------------------|
-----------------------------------------------------|
-----------------------------------------------------|
-----------------------------------------------------|
-----------------------------------------------------|

10 13 14 10 13 14 10 13 14 10 13 14---|
--------------------------------------|
--------------------------------------|
--------------------------------------|
--------------------------------------|
--------------------------------------|

10 12 13 12 13 10-12 13 12 13 12 13 12 13 12 13 12 13 12 13 12 13------|
------------------------------------------------------------------14^--|
-----------------------------------------------------------------------|
-----------------------------------------------------------------------|
-----------------------------------------------------------------------|
-----------------------------------------------------------------------|

|--------------------------|
|-----------17-15-17~~~----|
|-15~~~~-14----------------|
|--------------------------|
|--------------------------|
|--------------------------|

|---------------------------------|
|----17----17----17----14-12------|
|-16----16----16----16------------|
|---------------------------------|
|---------------------------------|
|---------------------------------|

|---------------------------------------------------------12h14h16----------|and so on
|---------------------------------------11h13h15h11h13h15-------------------|
|---------------9h11h13h9h11h13h9h11h13-------------------------------------|
|-7h9h11h7h9h11-------------------------------------------------------------|
|---------------------------------------------------------------------------|
|---------------------------------------------------------------------------|


|-18~~-18-18------------------------|-18~~-17------------------------|
|------------18-16-18~~-------------|---------17-15-17-15-17~~-------|
|-----------------------------------|--------------------------------|
|-----------------------------------|--------------------------------|
|-----------------------------------|--------------------------------|
|-----------------------------------|--------------------------------|

|21~~-22~~--19/18-19~~-19-19-19-19-19-19-19-19-19-19-15-15-14-12-13~~--|
|----------------------------------------------------------------------|
|----------------------------------------------------------------------|
|----------------------------------------------------------------------|
|----------------------------------------------------------------------|
|----------------------------------------------------------------------|

 OUTRO: 						           x 4| Play this at fourth time
|---------------------------------------------------------------------|-------------------------|
|---------------------------------------------------------------------|-------------------------|
|---------------------------------------------------------------------|-3T5---------------------|
|-------------------------------------------4-4-4---------------------|-------------------------|
|-4-4-4-4-4-4-4-4-4-4-4-4-4-4-4----2-2-2-22-2-2-2--4-4-4-4-4-4-4-44---|-------------------------|
|-2-2-2-2-2-2-2-2-2-2-2-2-2-2-2-00-0-0-0-00--------2-2-2-2-2-2-2-22---|-------------------------|
    .   .   .   .   .   .   .      . . .    . . .  .   .   .   .

FADE
__________________________________________________________________________________________________

Ok, there you go the whole song, it`s easy to play and looks good to play in a band.
I looked other versions of this song but no one had tabbed the solo,
so this is the first tab that contains the solo, and must be correct.
It was harder for me to tab it, i`m not that good tabbing solos.

__________________________________________________________________________________________
            
Submit corrections


        Fire It Up lessons Hard to play? Try these video lessons and learn fast Fire It Up lessons
        
↑ Back to top | Tablatures and chords for acoustic guitar and electric guitar, ukulele, drums are parodies/interpretations of the original songs. You may use it for private study, scholarship, research or language learning purposes only