» » »

Black Label Society - Dr Octavia Tabs

Artists:  A B C D E F G H I J K L M N O P Q R S T U V W X Y Z # 

Dr Octavia Tabs

(ver. 2) Click to play this song!
Black Label Society
 Rating:
4/5 (4 votes)

 Dr Octavia lessons Tabs too difficult? Try these video lessons and learn fast
 
                






Tuning: D G C F A D 


with Octave pedal 

(-----2 x's-------)
|--------------------|-----3-5^------3-5^------3-5^------------|
|--------------------|-3-5-------3-5-------3-5-----------------|
|-----(p)------------|-----------------------------------------|
|--2^-----0--(p)-----|-----------------------------------------|
|-----------2---0----|-----------------------------------------|
|-0---------------0--|-----------------------------------------|



|---------3---5------------3---5-------3---5------------3---5--|
|-3---5------------3----5--------3---5------------3---5--------|
|--------------------------------------------------------------|
|--------------------------------------------------------------|
|--------------------------------------------------------------|
|--------------------------------------------------------------|



|-----3-5/6------3-5/6\5-3------5-3-0----3-0-------0-----------|
|-3-5--------3-5-----------5-3--------3-------3-0----3-0-------|
|--------------------------------------------------------3-----|
|--------------------------------------------------------------|
|--------------------------------------------------------------|
|--------------------------------------------------------------|



|--------------------------------------------------------------|
|-3-0------0---------------------------------------------------|
|-----3-0----3-2-0--2-0------0---------------------------------|
|-----------------------2--0---2-0---------2^------------------|
|-----------------------------------2-1-0----------------------|
|------------------------------------------------0-------------|


     tap and bend slowly  
|--------------------------------------------------------------|
|----t-----------------------p--p--h---------10-11-12-11-10----|
|-9--15^------------------15-14-12-14^-----12---------------12-|
|--------------------------------------------------------------|
|--------------------------------------------------------------|
|--------------------------------------------------------------|




|--------------------------------------------------------------|
|-10-11-12-11-10----10-11-12-11-10---10-11-12-11-10----10-11-12|
|----------------12----------------12---------------12---------|
|--------------------------------------------------------------|
|--------------------------------------------------------------|
|--------------------------------------------------------------|




|----------10-------12-10-------13-10--------------------------|
|-10-11-12----12-10-------12-10-------12-10-12-10--------10----|
|-------------------------------------------------11--9--------|
|--------------------------------------------------------------|
|--------------------------------------------------------------|
|--------------------------------------------------------------|



|--------------------------------------------------------------|
|---------7----------------------------------------------------|
|-11-9-7----9-7---7--------------------------------------------|
|---------------9---9-7----------------------------------------|
|------------------------9-8-7---------------------------------|
|-------------------------------0------------------------------|
            
Submit corrections


        Dr Octavia lessons Hard to play? Try these video lessons and learn fast Dr Octavia lessons
        
↑ Back to top | Tablatures and chords for acoustic guitar and electric guitar, ukulele, drums are parodies/interpretations of the original songs. You may use it for private study, scholarship, research or language learning purposes only