» » »

Black Label Society - Blood Is Thicker Than Water Tabs

Artists:  A B C D E F G H I J K L M N O P Q R S T U V W X Y Z # 

Blood Is Thicker Than Water Tabs

(ver. 1) Click to play this song!
Black Label Society
 Rating:
4/5 (10 votes)

 Blood Is Thicker Than Water lessons Tabs too difficult? Try these video lessons and learn fast
 
                Black Label Society - Blood Is Thicker Than Water
Tuning:
  W/ sustainer pickup, slide all notes
e|---------------------------------------------------------------------|
B|---------------------------------------------------------------------|
G|-9~11~12~~~~14~11~9~~~9~11~12~~~14~11~9------------------------------|
D|---------------------------------------------------------------------|
A|---------------------------------------------------------------------|
E|---------------------------------------------------------------------|
and the chords go as follows 
       Em                G              A                       Em
e|------0---------0----------0-----------0----------------------------|
B|----3---3-----3---3------3---3-------3---3--------------------------|
G|----------------------2---------------------------------------------|x3
D|-2----------0---------2------------2--------------------------------|
A|-2----------0---------0------------2--------------------------------|
E|-0----------3----------------------0--------------------------------|
CHORUS :
    C7                  D                   Em                       A
e|------0----------0---------0-----------0----------------------------|
B|----3---3---3--3---3-----3---3-------3---3--------------------------|
G|------------2----------------------2--------------------------------|
D|-3----------0----------2-----------2--------------------------------|
A|-2---------------------2-----------0--------------------------------|
E|-0---------------------0--------------------------------------------|
    C7                  D                   Bm                       Em
e|------0----------0----------0-----------0---------------------------|
B|----3---3---3--3---3---3--3---3-------3---3-------------------------|
G|------------2----------4--------------------------------------------|
D|-3----------0----------4------------2-------------------------------|
A|-2---------------------2------------2-------------------------------|
E|-0---------------------X------------0-------------------------------|
            
Submit corrections


        Blood Is Thicker Than Water lessons Hard to play? Try these video lessons and learn fast Blood Is Thicker Than Water lessons
        
↑ Back to top | Tablatures and chords for acoustic guitar and electric guitar, ukulele, drums are parodies/interpretations of the original songs. You may use it for private study, scholarship, research or language learning purposes only