» » »

Black Label Society - Been A Long Time Tabs

Artists:  A B C D E F G H I J K L M N O P Q R S T U V W X Y Z # 

Been A Long Time Tabs

(ver. 2) Click to play this song!
Black Label Society
 Rating:
3.8/5 (5 votes)

 Been A Long Time lessons Tabs too difficult? Try these video lessons and learn fast
 
                Tuning: D G C F A D 



(1st verse)

|--------------------------------------------------------------|
|--------------------------------------------------------------|
|--------------------------------------------------------------|
|--2-2------------------------------------2-2------------------|
|--2-2------------------------------------2-2------------------|
|--0-0------------------------------------0-0------------------|
      

|--------------------------------------------------------------|
|--------------------------------------------------------------|
|--------------------------------------------------------------|
|--------------------------------------------------------------|
|--------------------------------------------------------------|
|------------------------------------------------0-/6^^--0-/5^^|





(Chorus)

|--------------------------------------------------------------|
|--------------------------------------------------------------|
|--------------------------------------------------------------|
|----------------------------------------2-2-2-----------------|
|----------------------------------------2-2-2-----------------|
|-10^^--6^^----5^^-----------3^---0------0-0-0-----------------|
   



|--------------------------------------------------------------|
|--------------------------------------------------------------|
|--------------------------------------------------------------|
|2-2--------------------------------------2-2------------------|
|2-2--------------------------------------2-2------------------|
|0-0--------------------------------------0-0------------------|
 

|--------------------------------------------------------------|
|--------------------------------------------------------------|
|--------------------------------------------------------------|
|--------------------------------------------------------------|
|--------------------------------------------------------------|
|------------------------------------------------0-/6^^--0-/5^^|




(Chorus)

|--------------------------------------------------------------|
|--------------------------------------------------------------|
|--------------------------------------------------------------|
|----------------------------------------2-2-2-----------------|
|----------------------------------------2-2-2-----------------|
|-10^^--6^^----5^^-----------3^---0------0-0-0-----------------|
   



solo:                   
                           bend 1&1/2
|--------------------------------------------------------------|
|--15----14-----12--------slow bend,slow release--p/o--h---p/h-|
|--17^^^-16^^^--14^------2^-----------------------(2)---2--2^--|
|--------------------------------------------------------------|
|--------------------------------------------------------------|
|--------------------------------------------------------------|

                       (trill, repeat pattern in chromatic 
                        decend while trilling the whole time)
|--------------------------------------------------------------|
|--15----14-----12-----12 15 12 15-12\11-14-11-14-11\10-13-ECT.|
|--17^^^-16^^^--14^--------------------------------------------|
|--------------------------------------------------------------|
|--------------------------------------------------------------|
|--------------------------------------------------------------|



 (-------repeat 6X's--------)
                                              p  p  p
||-------h--p--------h--p---||--------------15-12-14-12----12--|
||-----12-15-12----12-15-12-||-15^----------------------15-----|
||-14^----------14^---------||---------------------------------|
||--------------------------||---------------------------------|
||--------------------------||---------------------------------|
||--------------------------||---------------------------------|



|---p--p--p----------------------------------------------------|
|-15-12-14-12----12----12-------12-------12--------------------|
|-------------15----14----15-14----15-14----15-14--12^^^-------|
|--------------------------------------------------------------|
|--------------------------------------------------------------|
|--------------------------------------------------------------|


|--------------------------------------------------------------|
|--------------------------------------------------------------|
|-------------------9-------------11-------11-12-14-12-11--9^^-|
|-7-9-11-12-9-11-12------11-12-14----12-14---------------------|
|--------------------------------------------------------------|
|--------------------------------------------------------------|

                                                    (bd 1wh.step)
|-12----14---15--17-------22------22-----22-----22--22^--------|
|-15^---17^--18^-20^---22^-----22^----22^---22^----------------|
|--------------------------------------------------------------|
|--------------------------------------------------------------|
|--------------------------------------------------------------|
|--------------------------------------------------------------|
            
Submit corrections


        Been A Long Time lessons Hard to play? Try these video lessons and learn fast Been A Long Time lessons
        
↑ Back to top | Tablatures and chords for acoustic guitar and electric guitar, ukulele, drums are parodies/interpretations of the original songs. You may use it for private study, scholarship, research or language learning purposes only