» » »

Black Label Society - America The Beautiful Tabs

Artists:  A B C D E F G H I J K L M N O P Q R S T U V W X Y Z # 

America The Beautiful Tabs

(ver. 1) Click to play this song!
Black Label Society
 Rating:
4.7/5 (15 votes)

 America The Beautiful lessons Tabs too difficult? Try these video lessons and learn fast
 
                Correct version by Zakk Wylde himself

Tuning: standard

Opening arpeggio:

E:---------------------------------------------------:
B:---------------------------------------------------:
G:--------------0------------------------0-----------:
D:---------0-------0-----0---------0--------0-----0--:
A:------2----2--------2---------2-----2--------3-----:
E:---3-----------------------3-----------------------:



|-----------------|----------------|-----------------|--------7-------|
|-----------------|-----3-5/7------|-----------------|10-9-10-----10--|
|-7-7-4-4-7-7\2-2-|-4-5-------7-5-4|-7-7-4-4-7-7\2-2-|----------9-----|
|-----------------|----------------|-----------------|----------------|
|-----------------|----------------|-----------------|----------------|
|-----------------|----------------|-----------------|----------------|

|---------------------------------------------|--------------------------5----|
|--10/12-12-10-8-8-10---8-10----------8-0h1-0-|-8-8-5-5-8-8--------5-8-----8--|
|7--------------------9------9/11-9-7---0h2-0-|-------------7-7--7-----7------|
|---------------------------------------------|-------------------------------|
|---------------------------------------------|-------------------------------|
|---------------------------------------------|-------------------------------|

|---------------|-----------------|--------------------------7-----------|
|---------------|-----3-5/7-------|------------------10-9-10-----10------|
|7-7-4-4-7-7\2-2|-4-5-------7-5-4-|-7-7-4-4-7-7\2-2------------9---------|
|---------------|-----------------|--------------------------------------|
|---------------|-----------------|--------------------------------------|
|---------------|-----------------|--------------------------------------|

|----------------------------------------------|--------------------------5--|-------|
|---10/12-12-10-8-8-10---8/10----------8-0h1-0-|-8-8-5-5-8-8--------5-8-----8|0h1-0--|
|-7--------------------9------9/11-9-7---0h2-0-|-------------7-7--7-----7----|0h2-0--|
|----------------------------------------------|-----------------------------|-------|
|----------------------------------------------|-----------------------------|-------|
|----------------------------------------------|-----------------------------|-------|





solo/breakdown:  (there are some variations on the end of it as the             song progresses)

E:-10h12-8h10-7h8------------------------------------:
B:-----------------10h12-8h10-7h8-5h7----------------:
G:-------------------------------------7h9-5h7-------:
D:---------------------------------------------------:
A:---------------------------------------------------:
E:---------------------------------------------------:

E:-------------- ------------------------------------:
B:---------------------------------------------------:
G:--4h5p4/2--2h4--2--0--0----------------------------:
D:---------------------------------------------------:
A:---------------------------------------------------:
E:---------------------------------------------------:

repeat 3x
            
Submit corrections


        America The Beautiful lessons Hard to play? Try these video lessons and learn fast America The Beautiful lessons
        
↑ Back to top | Tablatures and chords for acoustic guitar and electric guitar, ukulele, drums are parodies/interpretations of the original songs. You may use it for private study, scholarship, research or language learning purposes only