Home » B » Black Label Society »

Black Label Society - 13 Years Of Grief Tabs

Artists:  A B C D E F G H I J K L M N O P Q R S T U V W X Y Z # 

13 Years Of Grief Tabs

(ver. 2) Click to play this song!
Black Label Society
 Rating:
4/5 (4 votes)
                Tuning: B,Ab,Db,Gb,Bb,Eb 


 Intro
To get the sound that Zakk does at the intro, put your fret hand 
Over the strings above the neck pick up and slowly move you hand
Forward as you pick the bottom string (low E).
 

verse
|--------------------------------------------------------------|
|--------------------------------------------------------------|
|--------------------------------------------------------------|
|--------------------------------------------------------------|
|--------------------------------------------------------------|
|-1^0--0-0--0--1-0--0--3--0--3--5--6--0--5*--------------------|
                                         PH


|--------------------------------------------------------------|
|--------------------------------------------------------------|
|--------------------------------------------------------------|
|--------------------------------------------------------------|
|--------------------------------------------------------------|
|-10--12-12-0-15-12--12-0-15-17~~-15-17-17-15-17---------------|


Bridge 
|--------------------------------------------------------------|
|-9-12-----9---------------------------------------------------|
|------12-----12-11-10-----9------11------9--------------------|
|----------------------11-----11------11--------11-9-----------|
|----------------------------------------------------11--------|
|--------------------------------------------------------------|




 2nd time
|--------------------------------------------------------------|
|--------------------------------------------------------------|
|--------------------------------------------------------------|
|-11--9--------11--9-------11--9-------11--9-------------------|
|--------11-9--------11-9--------11-9--------11-9--------------|
|--------------------------------------------------------------|

Guitar Solo
   8x's                         4x's
|--------------|-----------|-14-14-14-13-11----|---------------|
|-14--11----11-|-14^--14~~-|----------------12-|---------------|
|--------13----|-----------|-------------------|---------------|
|--------------|-----------|-------------------|-13------------|
|--------------|-----------|-------------------|---------------|
|--------------|-----------|-------------------|---------------|


|--------------------------------------------------------------|
|-------------------------------------------13~~---------------|
|-------------------11-12-14-12-11-11^-11^---------------------|
|----------11-12-14--------------------------------------------|
|-11-12-14-----------------------------------------------------|
|--------------------------------------------------------------|
            
Submit corrections

↑ Back to top | Tablatures and chords for acoustic guitar and electric guitar, ukulele, drums are parodies/interpretations of the original songs. You may use it for private study, scholarship, research or language learning purposes only