» » »

Black Dahlia Murder - Statutory Ape Tabs

Artists:  A B C D E F G H I J K L M N O P Q R S T U V W X Y Z # 

Statutory Ape Tabs

(ver. 2) Click to play this song!
Black Dahlia Murder
 Rating:
4/5 (4 votes)

 Statutory Ape lessons Tabs too difficult? Try these video lessons and learn fast
 
                Another Transfer:

The Black Dahlia Murder - Statutory Ape [Miasma]


-----------------------------------------------------------------------------

[GTR1] - Brian Eschbach
[GTR2] - Eschbach Harmony

[GTR3] - John Kempainen
[GTR4] - Kempainen Harmony

*CTRL+F and code in brackets*

-----------------------------------------------------------------------------

[GTR1] 

                                Statutory Ape                                   


                                                         The Black Dahlia Murder
Brian Eschbach (Guitar)
C-Standard Tuning



              PM PM PM PM PM  PM  PM  PM    PM PM               PM PM  
              E  E  E  E  E   E   E   E     E  E  E   E  E   E  E  E   
C ||-------|-----------------------------|----------------------------|
G ||-------|-----------------------------|----------------------------|
D#||-------|-----------------------------|----------------------------|
A#||-------|---------------------10------|--------9------9------------|
F ||-------|--------6-----9----------12--|-----------10-----10--------|
C ||-------|--5--8-----8-----11----------|--0--0----------------0--0--|


                     PM PM    PM PM                      
  E  E  E  E   E  E  E  E     E  E  E   E  E  E   E  E   
---------------------------|----------------------------|
---------------------------|----------------------------|
--9-----9------------------|---------------9-----12--9--|
-----9-----9--10--7--------|--------9---------9---------|
---------------------9--7--|-----------10---------------|
---------------------------|--0--0----------------------|


         PM PM                PM PM               PM PM  
   E  E  E  E  E  E  E  E     E  E  E   E  E   E  E  E   
---------------------------|----------------------------|
---------------------------|----------------------------|
---------------8-----------|----------------------------|
--10--7-----------9--7-----|--------9------9------------|
---------9--7-----------9--|-----------10-----10--------|
---------------------------|--0--0----------------0--0--|


                     PM PM    PM PM                      
  E  E  E  E   E  E  E  E     E  E  E   E  E  E   E  E   
---------------------------|----------------------------|
---------------------------|----------------------------|
--9-----9------------------|---------------9-----12--9--|
-----9-----9--10--7--------|--------9---------9---------|
---------------------9--7--|-----------10---------------|
---------------------------|--0--0----------------------|


         PM PM                PM PM               PM PM  
   E  E  E  E  E  E  E  E     E  E  E   E  E   E  E  E   
---------------------------|----------------------------|
---------------------------|----------------------------|
---------------8-----------|----------------------------|
--10--7-----------9--7-----|--------9------9------------|
---------9--7-----------9--|-----------10-----10--------|
---------------------------|--0--0----------------0--0--|


                     PM PM    PM PM                      
  E  E  E  E   E  E  E  E     E  E  E   E  E  E   E  E   
---------------------------|----------------------------|
---------------------------|----------------------------|
--9-----9------------------|---------------9-----12--9--|
-----9-----9--10--7--------|--------9---------9---------|
---------------------9--7--|-----------10---------------|
---------------------------|--0--0----------------------|


         PM PM                PM PM               PM PM  
   E  E  E  E  E  E  E  E     E  E  E   E  E   E  E  E   
---------------------------|----------------------------|
---------------------------|----------------------------|
---------------8-----------|----------------------------|
--10--7-----------9--7-----|--------9------9------------|
---------9--7-----------9--|-----------10-----10--------|
---------------------------|--0--0----------------0--0--|


                     PM PM    PM PM                      
  E  E  E  E   E  E  E  E     E  E  E   E  E  E   E  E   
---------------------------|----------------------------|
---------------------------|----------------------------|
--9-----9------------------|---------------9-----12--9--|
-----9-----9--10--7--------|--------9---------9---------|
---------------------9--7--|-----------10---------------|
---------------------------|--0--0----------------------|


         PM PM                    PM PM PM              
   E  E  E  E  E  E  E  E      E  E  E  E  E  E  E  E   
---------------------------|---------------------------|
---------------------------|---------------------------|
---------------8-----------|---------------8-----8-----|
--10--7-----------9--7-----|--10--7-----------9-----9--|
---------9--7-----------9--|---------9--7--------------|
---------------------------|---------------------------|


     PM PM     PM    PM          PM PM     PM    PM     
  E  E  E   E  E  E  E  E     E  E  E   E  E  E  E  E   
---------------------------|---------------------------|
---------------------------|---------------------------|
---------------------------|---------------------------|
---------------------------|-----------10-----9-----7--|
--7--------10-----9-----7--|--6------------0-----0-----|
-----0--0------0-----0-----|-----0--0------------------|


      PM PM    PM PM            PM PM    PM PM        
   E  E  E  E  E  E  Q       E  E  E  E  E  E   Q     
--------------------------|--------------------------|
--------------------------|--------------------------|
--------------------------|--------------------------|
--10--------9--------7----|--9--------7--------------|
------0--0-----0--0-------|--------------------10----|
--------------------------|-----7--7-----7--7--------|


     PM PM     PM    PM          PM PM     PM    PM     
  E  E  E   E  E  E  E  E     E  E  E   E  E  E  E  E   
---------------------------|---------------------------|
---------------------------|---------------------------|
---------------------------|---------------------------|
---------------------------|-----------10-----9-----7--|
--7--------10-----9-----7--|--6------------0-----0-----|
-----0--0------0-----0-----|-----0--0------------------|


      PM PM    PM PM            PM PM    PM PM        
   E  E  E  E  E  E  Q       E  E  E  E  E  E   Q     
--------------------------|--------------------------|
--------------------------|--------------------------|
--------------------------|--------------------------|
--10--------9--------7----|--9--------7--------------|
------0--0-----0--0-------|--------------------10----|
--------------------------|-----7--7-----7--7--------|


     PM PM     PM    PM          PM PM PM PM                  
  E  E  E   E  E  E  E  E     E  E  S  S  E  E    E  E    E   
---------------------------|---------------------------------|
---------------------------|---------------------------------|
---------------------------|---------------------------------|
---------------------------|---------------------------------|
--7--------10-----9-----7--|--6----------------------9h--12--|
-----0--0------0-----0-----|-----0--0--0--0--8h--11----------|


      PM PM    PM                PM PM PM    PM PM PM  
   E  E  E  E  E  Q     E     E  E  E  E  E  E  E  E   
---------------------------|--------------------------|
---------------------------|--------------------------|
---------------------------|--------------------------|
--10--------9-----7----10--|--------------------------|
------0--0-----0-----------|--7-----------7-----------|
---------------------------|-----0--0--0-----0--0--0--|


     PM PM     PM    PM          PM PM PM PM                  
  E  E  E   E  E  E  E  E     E  E  S  S  E  E    E  E    E   
---------------------------|---------------------------------|
---------------------------|---------------------------------|
---------------------------|---------------------------------|
---------------------------|---------------------------------|
--7--------10-----9-----7--|--6----------------------9h--12--|
-----0--0------0-----0-----|-----0--0--0--0--8h--11----------|


      PM PM    PM                PM PM PM    PM PM PM  
   E  E  E  E  E  Q     E     E  E  E  E  E  E  E  E   
---------------------------|--------------------------|
---------------------------|--------------------------|
---------------------------|--------------------------|
--10--------9-----7----10--|--------------------------|
------0--0-----0-----------|--7-----------7-----------|
---------------------------|-----0--0--0-----0--0--0--|


     PM PM    PM     PM       PM PM PM PM PM PM PM PM PM PM  
  E  E  E  E  E   E  E  E     E  E  S  S  E  E  E  S  S  E   
---------------------------|--------------------------------|
---------------------------|--------------------------------|
---------------------------|--------------------------------|
--7------------------------|--------------------------------|
-----------9-----10-----7--|--------------------------------|
-----7--7-----7------7-----|--7--7--7--7--7--7--7--7--7--7--|


     PM PM    PM    PM       PM PM PM PM PM PM PM PM PM PM  
  E  E  E  E  E  E  E  E     E  E  S  S  E  E  E  S  S  E   
--------------------------|--------------------------------|
--------------------------|--------------------------------|
--------------------------|--------------------------------|
--------------------------|--------------------------------|
--6--------2-----3-----6--|--------------------------------|
-----5--5-----5-----5-----|--2--2--2--2--2--2--2--2--2--2--|


     PM PM    PM     PM       PM PM PM PM PM PM PM PM PM PM  
  E  E  E  E  E   E  E  E     E  E  S  S  E  E  E  S  S  E   
---------------------------|--------------------------------|
---------------------------|--------------------------------|
---------------------------|--------------------------------|
--7------------------------|--------------------------------|
-----------9-----10-----7--|--------------------------------|
-----7--7-----7------7-----|--7--7--7--7--7--7--7--7--7--7--|


     PM PM    PM    PM       PM PM PM PM PM PM PM PM PM PM PM  
  E  E  E  E  E  E  E  E     E  E  S  S  E  S  S  E  S  S  E   
--------------------------|-----------------------------------|
--------------------------|-----------------------------------|
--------------------------|-----------------------------------|
--------------------------|-----------------------------------|
--6--------2-----3-----6--|-----------------------------------|
-----5--5-----5-----5-----|--2--2--2--2--2--2--2--2--2--2--2--|


     PM PM     PM    PM          PM PM     PM    PM     
  E  E  E   E  E  E  E  E     E  E  E   E  E  E  E  E   
---------------------------|---------------------------|
---------------------------|---------------------------|
---------------------------|---------------------------|
---------------------------|-----------10-----9-----7--|
--7--------10-----9-----7--|--6------------0-----0-----|
-----0--0------0-----0-----|-----0--0------------------|


      PM PM    PM PM            PM PM    PM PM        
   E  E  E  E  E  E  Q       E  E  E  E  E  E   Q     
--------------------------|--------------------------|
--------------------------|--------------------------|
--------------------------|--------------------------|
--10--------9--------7----|--9--------7--------------|
------0--0-----0--0-------|--------------------10----|
--------------------------|-----7--7-----7--7--------|


     PM PM     PM    PM          PM PM     PM    PM     
  E  E  E   E  E  E  E  E     E  E  E   E  E  E  E  E   
---------------------------|---------------------------|
---------------------------|---------------------------|
---------------------------|---------------------------|
---------------------------|-----------10-----9-----7--|
--7--------10-----9-----7--|--6------------0-----0-----|
-----0--0------0-----0-----|-----0--0------------------|


      PM PM    PM PM            PM PM    PM PM         
   E  E  E  E  E  E  Q       E  E  E  E  E  E   Q      
--------------------------|---------------------------|
--------------------------|---------------------------|
--------------------------|---------------------------|
--10--------9--------7----|---------------------------|
------0--0-----0--0-------|--------------------10S----|
--------------------------|--5--0--0--2--0--0---------|


  S S S S S S S S  S  S  S  S S S S S  
--------------------------------------|
--------------------------------------|
--------------------------------------|
--------------------------------------|
--7-7-7-7-0-0-0-0-10-10-10-10-0-0-0-0-|
--------------------------------------|


  S S S S S S S S  S  S  S  S  S  S  S  S  
------------------------------------------|
------------------------------------------|
------------------------------------------|
------------------------------------------|
--7-7-7-7-0-0-0-0-10-10-10-10-------------|
------------------------------11-11-11-11-|


   S  S  S  S S S S S S S S S S S S S     S  S  S  S S S S S S S S S S S S S  
--------------------------------------|--------------------------------------|
--------------------------------------|--------------------------------------|
--------------------------------------|--------------------------------------|
----------------------9-9-9-9---------|----------------------9-9-9-9-7-7-7-7-|
--10-10-10-10-------------------------|--10-10-10-10-------------------------|
--------------7-7-7-7---------7-7-7-7-|--------------7-7-7-7-----------------|


  S S S S S S S S S S S S S S S S    S S S S S S S S S S S S S S S S  
----------------------------------|----------------------------------|
----------------------------------|----------------------------------|
----------------------------------|----------------------------------|
--7-7-7-7-------------------------|--7-7-7-7-------------------------|
----------3-3-3-3-6-6-6-6-3-3-3-3-|----------3-3-3-3-6-6-6-6-3-3-3-3-|
----------------------------------|----------------------------------|


  S S S S S S S S S S S S S S S S    S S S S S S S S S S S S S S S S  
----------------------------------|----------------------------------|
----------------------------------|----------------------------------|
----------------------------------|----------------------------------|
--5-5-5-5-------------------------|--5-5-5-5-------------------------|
----------2-2-2-2-3-3-3-3-2-2-2-2-|----------2-2-2-2-3-3-3-3-2-2-2-2-|
----------------------------------|----------------------------------|


  S S S S S S S S  S  S  S  S S S S S  
--------------------------------------|
--------------------------------------|
--------------------------------------|
--------------------------------------|
--7-7-7-7-0-0-0-0-10-10-10-10-0-0-0-0-|
--------------------------------------|


  S S S S S S S S  S  S  S  S  S  S  S  S  
------------------------------------------|
------------------------------------------|
------------------------------------------|
------------------------------------------|
--7-7-7-7-0-0-0-0-10-10-10-10-------------|
------------------------------11-11-11-11-|


   S  S  S  S S S S S S S S S S S S S     S  S  S  S S S S S S S S S S S S S  
--------------------------------------|--------------------------------------|
--------------------------------------|--------------------------------------|
--------------------------------------|--------------------------------------|
----------------------9-9-9-9---------|----------------------9-9-9-9-7-7-7-7-|
--10-10-10-10-------------------------|--10-10-10-10-------------------------|
--------------7-7-7-7---------7-7-7-7-|--------------7-7-7-7-----------------|


  S S S S S S S S S S S S S S S S    S S S S S S S S S S S S S S S S  
----------------------------------|----------------------------------|
----------------------------------|----------------------------------|
----------------------------------|----------------------------------|
--7-7-7-7-------------------------|--7-7-7-7-------------------------|
----------3-3-3-3-6-6-6-6-3-3-3-3-|----------3-3-3-3-6-6-6-6-3-3-3-3-|
----------------------------------|----------------------------------|


                                     PM PM PM PM PM  PM  PM  PM  
  S S S S S S S S S S S S S S S S    E  E  E  E  E   E   E   E   
----------------------------------|-----------------------------|
----------------------------------|-----------------------------|
----------------------------------|-----------------------------|
--5-5-5-5-------------------------|---------------------10------|
----------2-2-2-2-3-3-3-3-2-2-2-2-|--------6-----9----------12--|
----------------------------------|--5--8-----8-----11----------|


  PM PM               PM PM                       PM PM  
  E  E  E   E  E   E  E  E     E  E  E  E   E  E  E  E   
----------------------------|---------------------------|
----------------------------|---------------------------|
----------------------------|--9-----9------------------|
--------9------9------------|-----9-----9--10--7--------|
-----------10-----10--------|---------------------9--7--|
--0--0----------------0--0--|---------------------------|


  PM PM                               PM PM              
  E  E  E   E  E  E   E  E      E  E  E  E  E  E  E  E   
----------------------------|---------------------------|
----------------------------|---------------------------|
---------------9-----12--9--|---------------8-----------|
--------9---------9---------|--10--7-----------9--7-----|
-----------10---------------|---------9--7-----------9--|
--0--0----------------------|---------------------------|


  PM PM               PM PM                       PM PM  
  E  E  E   E  E   E  E  E     E  E  E  E   E  E  E  E   
----------------------------|---------------------------|
----------------------------|---------------------------|
----------------------------|--9-----9------------------|
--------9------9------------|-----9-----9--10--7--------|
-----------10-----10--------|---------------------9--7--|
--0--0----------------0--0--|---------------------------|


  PM PM                               PM PM              
  E  E  E   E  E  E   E  E      E  E  E  E  E  E  E  E   
----------------------------|---------------------------|
----------------------------|---------------------------|
---------------9-----12--9--|---------------8-----------|
--------9---------9---------|--10--7-----------9--7-----|
-----------10---------------|---------9--7-----------9--|
--0--0----------------------|---------------------------|


  PM PM               PM PM                       PM PM  
  E  E  E   E  E   E  E  E     E  E  E  E   E  E  E  E   
----------------------------|---------------------------|
----------------------------|---------------------------|
----------------------------|--9-----9------------------|
--------9------9------------|-----9-----9--10--7--------|
-----------10-----10--------|---------------------9--7--|
--0--0----------------0--0--|---------------------------|


  PM PM                               PM PM              
  E  E  E   E  E  E   E  E      E  E  E  E  E  E  E  E   
----------------------------|---------------------------|
----------------------------|---------------------------|
---------------9-----12--9--|---------------8-----------|
--------9---------9---------|--10--7-----------9--7-----|
-----------10---------------|---------9--7-----------9--|
--0--0----------------------|---------------------------|


  PM PM               PM PM                       PM PM  
  E  E  E   E  E   E  E  E     E  E  E  E   E  E  E  E   
----------------------------|---------------------------|
----------------------------|---------------------------|
----------------------------|--9-----9------------------|
--------9------9------------|-----9-----9--10--7--------|
-----------10-----10--------|---------------------9--7--|
--0--0----------------0--0--|---------------------------|


  PM PM                               PM PM                    
  E  E  E   E  E  E   E  E      E  E  E  E  E  E  E  E         
----------------------------|---------------------------|-----|
----------------------------|---------------------------|-----|
---------------9-----12--9--|---------------8-----------|-----|
--------9---------9---------|--10--7-----------9--7-----|-----|
-----------10---------------|---------9--7-----------9--|-----|
--0--0----------------------|---------------------------|-----|


       PM PM PM PM PM PM PM PM PM    PM PM PM PM PM PM PM PM PM PM PM PM  
  Q    S  S  E  S  S  E  S  S  E     S  S  E  S  S  E  S  S  E  S  S  E   
----------------------------------|--------------------------------------|
----------------------------------|--------------------------------------|
----------------------------------|--------------------------------------|
--9-------------------------------|--------------------------------------|
--7-------------------------------|--------------------------------------|
--7----0--0--0--0--0--0--0--0--0--|--0--0--0--0--0--0--0--0--0--0--0--0--|


       PM PM PM PM PM PM PM PM PM         PM PM PM              
  Q    S  S  E  S  S  E  S  S  E     Q    S  S  E  Q      Q     
----------------------------------|----------------------------|
----------------------------------|----------------------------|
----------------------------------|----------------------------|
--8-------------------------------|--8-------------8S----11----|
--6-------------------------------|--6-------------6S-----9----|
--6----0--0--0--0--0--0--0--0--0--|--6----0--0--0--6S-----9----|


       PM PM PM PM PM PM PM PM PM    PM PM PM PM PM PM PM PM PM PM PM PM  
  Q    S  S  E  S  S  E  S  S  E     S  S  E  S  S  E  S  S  E  S  S  E   
----------------------------------|--------------------------------------|
----------------------------------|--------------------------------------|
----------------------------------|--------------------------------------|
--9-------------------------------|--------------------------------------|
--7-------------------------------|--------------------------------------|
--7----0--0--0--0--0--0--0--0--0--|--0--0--0--0--0--0--0--0--0--0--0--0--|


                       PM    PM  PM PM  PM                 
  H         E   E  E   E     E   E  E   E   E  E   E   E   
--------------------------|-------------------------------|
--------------------------|-------------------------------|
--------------------------|-------------------------------|
--5--------10-------------|----------------10-------------|
--3------------12--9------|---------9--12------9--12------|
--3-------------------11--|--8--11--------------------11--|


       PM PM PM PM PM PM PM PM PM    PM PM PM PM PM PM PM PM PM PM PM PM  
  Q    S  S  E  S  S  E  S  S  E     S  S  E  S  S  E  S  S  E  S  S  E   
----------------------------------|--------------------------------------|
----------------------------------|--------------------------------------|
----------------------------------|--------------------------------------|
--9-------------------------------|--------------------------------------|
--7-------------------------------|--------------------------------------|
--7----0--0--0--0--0--0--0--0--0--|--0--0--0--0--0--0--0--0--0--0--0--0--|


       PM PM PM PM PM PM PM PM PM         PM PM PM              
  Q    S  S  E  S  S  E  S  S  E     Q    S  S  E  Q      Q     
----------------------------------|----------------------------|
----------------------------------|----------------------------|
----------------------------------|----------------------------|
--8-------------------------------|--8-------------8S----11----|
--6-------------------------------|--6-------------6S-----9----|
--6----0--0--0--0--0--0--0--0--0--|--6----0--0--0--6S-----9----|


       PM PM PM PM PM PM PM PM PM    PM PM PM PM PM PM PM PM PM PM PM PM  
  Q    S  S  E  S  S  E  S  S  E     S  S  E  S  S  E  S  S  E  S  S  E   
----------------------------------|--------------------------------------|
----------------------------------|--------------------------------------|
----------------------------------|--------------------------------------|
--9-------------------------------|--------------------------------------|
--7-------------------------------|--------------------------------------|
--7----0--0--0--0--0--0--0--0--0--|--0--0--0--0--0--0--0--0--0--0--0--0--|


                                                PM PM PM PM PM PM PM PM PM  
  H.           Q       W                   Q    S  S  E  S  S  E  S  S  E   
--------------------|-------------------|----------------------------------|
--------------------|-------------------|----------------------------------|
--------------------|--8----------------|----------------------------------|
--5-----------------|-------------------|--9-------------------------------|
--3-----------------|--6----------------|--7-------------------------------|
--------------------|-------------------|--7----0--0--0--0--0--0--0--0--0--|


  PM PM PM PM PM PM PM PM PM PM PM PM         PM PM PM PM PM PM PM PM PM  
  S  S  E  S  S  E  S  S  E  S  S  E     Q    S  S  E  S  S  E  S  S  E   
--------------------------------------|----------------------------------|
--------------------------------------|----------------------------------|
--------------------------------------|----------------------------------|
--------------------------------------|--8-------------------------------|
--------------------------------------|--6-------------------------------|
--0--0--0--0--0--0--0--0--0--0--0--0--|--6----0--0--0--0--0--0--0--0--0--|


       PM PM PM                     PM PM PM PM PM PM PM PM PM  
  Q    S  S  E  Q      Q       Q    S  S  E  S  S  E  S  S  E   
----------------------------|----------------------------------|
----------------------------|----------------------------------|
----------------------------|----------------------------------|
--8-------------8S----11----|--9-------------------------------|
--6-------------6S-----9----|--7-------------------------------|
--6----0--0--0--6S-----9----|--7----0--0--0--0--0--0--0--0--0--|


  PM PM PM PM PM PM PM PM PM PM PM PM                         PM  
  S  S  E  S  S  E  S  S  E  S  S  E     H         E   E  E   E   
--------------------------------------|--------------------------|
--------------------------------------|--------------------------|
--------------------------------------|--------------------------|
--------------------------------------|--5--------10-------------|
--------------------------------------|--3------------12--9------|
--0--0--0--0--0--0--0--0--0--0--0--0--|--3-------------------11--|


  PM  PM PM  PM                        PM PM PM PM PM PM PM PM PM  
  E   E  E   E   E  E   E   E     Q    S  S  E  S  S  E  S  S  E   
-------------------------------|----------------------------------|
-------------------------------|----------------------------------|
-------------------------------|----------------------------------|
----------------10-------------|--9-------------------------------|
---------9--12------9--12------|--7-------------------------------|
--8--11--------------------11--|--7----0--0--0--0--0--0--0--0--0--|


  PM PM PM PM PM PM PM PM PM PM PM PM         PM PM PM PM PM PM PM PM PM  
  S  S  E  S  S  E  S  S  E  S  S  E     Q    S  S  E  S  S  E  S  S  E   
--------------------------------------|----------------------------------|
--------------------------------------|----------------------------------|
--------------------------------------|----------------------------------|
--------------------------------------|--8-------------------------------|
--------------------------------------|--6-------------------------------|
--0--0--0--0--0--0--0--0--0--0--0--0--|--6----0--0--0--0--0--0--0--0--0--|


       PM PM PM                     PM PM PM PM PM PM PM PM PM  
  Q    S  S  E  Q      Q       Q    S  S  E  S  S  E  S  S  E   
----------------------------|----------------------------------|
----------------------------|----------------------------------|
----------------------------|----------------------------------|
--8-------------8S----11----|--9-------------------------------|
--6-------------6S-----9----|--7-------------------------------|
--6----0--0--0--6S-----9----|--7----0--0--0--0--0--0--0--0--0--|


  PM PM PM PM PM PM PM PM PM PM PM PM                        
  S  S  E  S  S  E  S  S  E  S  S  E      H.           Q     
--------------------------------------|---------------------|
--------------------------------------|---------------------|
--------------------------------------|---------------------|
--------------------------------------|---------------------|
--------------------------------------|--10-----------------|
--0--0--0--0--0--0--0--0--0--0--0--0--|---8-----------------|


  W                    E   E   E   S   S  E   E   E   E   
-------------------|--14---------------------------------|
-------------------|------17--16--17p-16-----16----------|
--8----------------|---------------------17------17--16--|
-------------------|-------------------------------------|
--6----------------|-------------------------------------|
-------------------|-------------------------------------|


   E   S   S  E   E   E   E   E   S   S     E   E   E   E   E   E   E   E   
----------------------------------------|----------------------------------|
----------------------------------------|----------------------------------|
--14--16p-14-----14---------------------|----------------------------------|
-------------17------17--16--14--16p-14-|--13--14--13----------------------|
----------------------------------------|--------------15--14--15--14--12--|
----------------------------------------|----------------------------------|


   W                     E   E   E   E   E   E   E   E   
---------------------|----------------------------------|
---------------------|----------------------------------|
---------------------|----------------------------------|
---------------------|------------------13--------------|
--14~----------------|--14--15--14--15------15--14--15--|
---------------------|----------------------------------|


   E   E   E   E   E   E   E   E      E   E   E   E   E   E   E   E   
----------------------------------|----------------------------------|
----------------------------------|----------------------------------|
----------------------------------|--14--16--14--16--17--16--14--16--|
--14--16--14--16--17--16--14--16--|----------------------------------|
----------------------------------|----------------------------------|
----------------------------------|----------------------------------|


   W                     E   E   E   S   S  E   E   E   E   
---------------------|--19--17--15--17p-15-14--15--14------|
--16~----------------|---------------------------------17--|
---------------------|-------------------------------------|
---------------------|-------------------------------------|
---------------------|-------------------------------------|
---------------------|-------------------------------------|


   E   E   E   E   E   E   E   E      E   E   E   S   S  E   E   E   E   
----------14--15--14--------------|-------------------------------------|
--16--17--------------17--16--17--|--19--17--16--17p-16-----16----------|
----------------------------------|---------------------17------17--16--|
----------------------------------|-------------------------------------|
----------------------------------|-------------------------------------|
----------------------------------|-------------------------------------|


   E   E   E   E   Q.       S  S     E   E   E   S   S  E   E   E   E   
---------------------------------|-------------------------------------|
---------------------------------|-------------------------------------|
--16--17--16------16~------16-16-|--17--16--14--16p-14-----14----------|
--------------19-----------------|---------------------17------17--16--|
---------------------------------|-------------------------------------|
---------------------------------|-------------------------------------|


                                                     PM  PM  PM  PM  PM  
   E   S   S  E   E   E   E   E   E      E   E   E   E   E   E   E   E   
-------------------------------------|----------------------------------|
-------------------------------------|----------------------------------|
-------------------------------------|----------------------------------|
--14--16p-14-13--14--13--------------|--13--14--13--------------13------|
-------------------------15--14--15--|--------------15--14--15------15--|
-------------------------------------|----------------------------------|


                         |---3---|   |---3---|   |---3---|   |---3---|   
   W                     E   E   E   E   E   E   E   E   E   E   E   E   
---------------------|--14----------------------------------------------|
---------------------|------17--16--17--16------16----------------------|
---------------------|----------------------17------17--16--17--16------|
---------------------|----------------------------------------------19--|
--14~----------------|--------------------------------------------------|
---------------------|--------------------------------------------------|


   |---3---|   |---3---|   |---3---|   |---3---|   
   E   E   E   E   E   E   E   E   E   E   E   E   
--------------------------------------------------|
--------------------------------------------------|
--16----------14----------12--11------11----------|
------19--17------17--16----------14------14--13--|
--------------------------------------------------|
--------------------------------------------------|


   |---3---|   |---3---|   |---3---|  |---3---|   
   E   E   E   E   E   E   E   E   E  E   E   E   
-------------------------------------------------|
-------------------------------------------------|
-------------------------------------------------|
--14--13------13----------10----------9----------|
----------15------15--14------14--12-----12--10--|
-------------------------------------------------|


                                                 PM PM PM PM PM PM  
  |---3--|   |--3--|  |--3--|  |--3--|                              
  E   E  E   E  E  E  E  E  E  E  E  E     E  E  E  E  E  E  E  E   
----------------------------------------|--------------------------|
----------------------------------------|--------------------------|
----------------------------------------|--------------------------|
--7-------------------------------------|--------------------------|
-----10--9--10--9--7--9--7--6--7--6-----|--------6--6--7--7--9--9--|
-------------------------------------7--|--8--8--------------------|


   E   E  E  E  E  E   E   E     E  E   E   E  E  E   Q     
------------------------------|----------------------------|
------------------------------|----------------------------|
------------------------------|--8--8----------------------|
----------7--7--9--9--10--10--|--------10--10--9--9--10----|
--10--10----------------------|----------------------------|
------------------------------|----------------------------|


  W                                                 
  H.             Q           Q     Q     H          
----------------------|--14g15----14---------------|
----------------12----|-----------------17~--------|
----------------------|----------------------------|
--9~------------------|----------------------------|
----------------------|----------------------------|
----------------------|----------------------------|


        |---3---|                                             
  Q     E   E   E   Q      Q           Q     Q     H          
-------17--17--17--15~----14----|--19g20----19---------------|
--L-----------------------------|-----------------16~--------|
--------------------------------|----------------------------|
--------------------------------|----------------------------|
--------------------------------|----------------------------|
--------------------------------|----------------------------|


                 >              
         |---3---|              
   Q     E   E   E   H          
-------------------------------|
---L----16--16--16--17~--------|
-------------------------------|
-------------------------------|
-------------------------------|
-------------------------------|


   |----3----|   |----3----|   |----3----|   |---3---|   
   E    E    E   E    E    E   E    E    E   E   E   E   
----------------17h--19h--20--17h--19p--17------17------|
--17h--19h--20------------------------------20------20--|
--------------------------------------------------------|
--------------------------------------------------------|
--------------------------------------------------------|
--------------------------------------------------------|


   |----3----|    |----3----|    |----3----|   |-3-|  |--|   
   E    E    E    E    E    E    E    E    E   E   S  S  E   
------------------------------------------------------------|
--19h--20p--19p--17h--19p--17p--16h--17p--16------16--------|
----------------------------------------------17-----17-16--|
------------------------------------------------------------|
------------------------------------------------------------|
------------------------------------------------------------|


   H.             E   E      W                        Q     Q     H          
-------------------------|---------------------|----------------------------|
-------------------------|---------------------|----------------------------|
--17~------------16--17--|--16~----------------|--16g17----16---------------|
-------------------------|---------------------|-----------------19~--------|
-------------------------|---------------------|----------------------------|
-------------------------|---------------------|----------------------------|


  Q     Q        Q     Q        H.            Q        W                  
-------17----17g19----17----|--15------------17----|---------------------|
----------------------------|----------------------|--19~----------------|
----------------------------|----------------------|---------------------|
--L-------------------------|----------------------|---------------------|
----------------------------|----------------------|---------------------|
----------------------------|----------------------|---------------------|

**********************Begin**Harmony*****************************************
   E   E   E   E   E   E   E   E      E   E   E   E   E   E   E   E   
--19------17------15------14------|--12------11----------------------|
------20------19------17------16--|------13------12--13------12------|
----------------------------------|----------------------14------12--|
----------------------------------|----------------------------------|
----------------------------------|----------------------------------|
----------------------------------|----------------------------------|


   E   E   E   E   E   E   E   E      W                    W                 
----------------------------------|---------------------|-------------------|
----------------------------------|---------------------|-------------------|
--14------12------11--------------|---------------------|--9----------------|
------16------14------13--14------|---------------------|-------------------|
------------------------------15--|--14~----------------|--7----------------|
----------------------------------|---------------------|-------------------|

**********************End**Harmony*******************************************
   H         H            W                    W                 
----------------------|--------------------|--------------------|
----------------------|--------------------|--------------------|
---L--------11--------|--12----------------|--14----------------|
----------------------|--------------------|--------------------|
---L---------9--------|--10----------------|--12----------------|
----------------------|--------------------|--------------------|


       W                    H         H             W                  
------------------------|-----------------------|---------------------|
------------------------|-----------------------|---------------------|
--/14g17----------------|---L--------17S--------|--16~----------------|
------------------------|-----------------------|---------------------|
--/12g15----------------|---L--------15S--------|--14~----------------|
------------------------|-----------------------|---------------------|


  H          H             S S S S S S S S  S  S  S  S S S S S  
------------------------|--------------------------------------|
------------------------|--------------------------------------|
--L--------(16)\--------|--------------------------------------|
------------------------|--------------------------------------|
--L--------(14)\--------|--7-7-7-7-0-0-0-0-10-10-10-10-0-0-0-0-|
------------------------|--------------------------------------|


  S S S S S S S S  S  S  S  S  S  S  S  S  
------------------------------------------|
------------------------------------------|
------------------------------------------|
------------------------------------------|
--7-7-7-7-0-0-0-0-10-10-10-10-------------|
------------------------------11-11-11-11-|


   S  S  S  S S S S S S S S S S S S S     S  S  S  S S S S S S S S S S S S S  
--------------------------------------|--------------------------------------|
--------------------------------------|--------------------------------------|
--------------------------------------|--------------------------------------|
----------------------9-9-9-9---------|----------------------9-9-9-9-7-7-7-7-|
--10-10-10-10-------------------------|--10-10-10-10-------------------------|
--------------7-7-7-7---------7-7-7-7-|--------------7-7-7-7-----------------|


  S S S S S S S S S S S S S S S S    S S S S S S S S S S S S S S S S  
----------------------------------|----------------------------------|
----------------------------------|----------------------------------|
----------------------------------|----------------------------------|
--7-7-7-7-------------------------|--7-7-7-7-------------------------|
----------3-3-3-3-6-6-6-6-3-3-3-3-|----------3-3-3-3-6-6-6-6-3-3-3-3-|
----------------------------------|----------------------------------|


  S S S S S S S S S S S S S S S S    S S S S S S S S S S S S S S S S  
----------------------------------|----------------------------------|
----------------------------------|----------------------------------|
----------------------------------|----------------------------------|
--5-5-5-5-------------------------|--5-5-5-5-------------------------|
----------2-2-2-2-3-3-3-3-2-2-2-2-|----------2-2-2-2-3-3-3-3-2-2-2-2-|
----------------------------------|----------------------------------|


  S S S S S S S S  S  S  S  S S S S S  
--------------------------------------|
--------------------------------------|
--------------------------------------|
--------------------------------------|
--7-7-7-7-0-0-0-0-10-10-10-10-0-0-0-0-|
--------------------------------------|


  S S S S S S S S  S  S  S  S  S  S  S  S  
------------------------------------------|
------------------------------------------|
------------------------------------------|
------------------------------------------|
--7-7-7-7-0-0-0-0-10-10-10-10-------------|
------------------------------11-11-11-11-|


   S  S  S  S S S S S S S S S S S S S     S  S  S  S S S S S S S S S S S S S  
--------------------------------------|--------------------------------------|
--------------------------------------|--------------------------------------|
--------------------------------------|--------------------------------------|
----------------------9-9-9-9---------|----------------------9-9-9-9-7-7-7-7-|
--10-10-10-10-------------------------|--10-10-10-10-------------------------|
--------------7-7-7-7---------7-7-7-7-|--------------7-7-7-7-----------------|


  S S S S S S S S S S S S S S S S    S S S S S S S S S S S S S S S S  
----------------------------------|----------------------------------|
----------------------------------|----------------------------------|
----------------------------------|----------------------------------|
--7-7-7-7-------------------------|--7-7-7-7-------------------------|
----------3-3-3-3-6-6-6-6-3-3-3-3-|----------3-3-3-3-6-6-6-6-3-3-3-3-|
----------------------------------|----------------------------------|


  S S S S S S S S S S S S S S S S    S S S S S S S S S S S S S S S S  
----------------------------------|----------------------------------|
----------------------------------|----------------------------------|
----------------------------------|----------------------------------|
--5-5-5-5-------------------------|--5-5-5-5-------------------------|
----------2-2-2-2-3-3-3-3-2-2-2-2-|----------2-2-2-2-3-3-3-3-2-2-2-2-|
----------------------------------|----------------------------------|


  S S S S S S S S S S S S S S S S    S S S S S S S S S S S S S S S S  
----------------------------------|----------------------------------|
----------------------------------|----------------------------------|
----------------------------------|----------------------------------|
------------------7-7-7-7---------|------------------7-7-7-7---------|
--9-9-9-9-------------------------|--9-9-9-9-----------------8-8-8-8-|
----------7-7-7-7---------7-7-7-7-|----------7-7-7-7-----------------|


   S  S  S  S S S S S  S  S  S  S S S S S  
------------------------------------------|
------------------------------------------|
------------------------------------------|
----------------------11-11-11-11---------|
--12-12-12-12-----------------------------|
--------------9-9-9-9-------------9-9-9-9-|


   S  S  S  S S S S S  S  S  S  S S S S S    S S S S S S S S S S S S S S S S  
------------------------------------------|----------------------------------|
------------------------------------------|----------------------------------|
------------------------------------------|----------------------------------|
----------------------11-11-11-11-9-9-9-9-|--9-9-9-9-------------------------|
--12-12-12-12-----------------------------|----------5-5-5-5-8-8-8-8-5-5-5-5-|
--------------9-9-9-9---------------------|----------------------------------|


  S S S S S S S S S S S S S S S S    S S S S S S S S S S S S S S S S  
----------------------------------|----------------------------------|
----------------------------------|----------------------------------|
----------------------------------|----------------------------------|
--9-9-9-9-------------------------|--7-7-7-7-------------------------|
----------5-5-5-5-8-8-8-8-5-5-5-5-|----------4-4-4-4-5-5-5-5-4-4-4-4-|
----------------------------------|----------------------------------|


  S S S S S S S S S S S S S S S S    S S S S S S S S S S S S S S S S  
----------------------------------|----------------------------------|
----------------------------------|----------------------------------|
----------------------------------|----------------------------------|
--7-7-7-7-------------------------|------------------7-7-7-7---------|
----------4-4-4-4-5-5-5-5-4-4-4-4-|--9-9-9-9-------------------------|
----------------------------------|----------7-7-7-7---------7-7-7-7-|


  S S S S S S S S S S S S S S S S     S  S  S  S S S S S  S  S  S  S S S S S  
----------------------------------|------------------------------------------|
----------------------------------|------------------------------------------|
----------------------------------|------------------------------------------|
------------------7-7-7-7---------|----------------------11-11-11-11---------|
--9-9-9-9-----------------8-8-8-8-|--12-12-12-12-----------------------------|
----------7-7-7-7-----------------|--------------9-9-9-9-------------9-9-9-9-|


   S  S  S  S S S S S  S  S  S  S S S S S    S S S S S S S S S S S S S S S S  
------------------------------------------|----------------------------------|
------------------------------------------|----------------------------------|
------------------------------------------|----------------------------------|
----------------------11-11-11-11-9-9-9-9-|--9-9-9-9-------------------------|
--12-12-12-12-----------------------------|----------5-5-5-5-8-8-8-8-5-5-5-5-|
--------------9-9-9-9---------------------|----------------------------------|


  S S S S S S S S S S S S S S S S    S S S S S S S S S S S S S S S S  
----------------------------------|-----------------------
            
Submit corrections


        Statutory Ape lessons Hard to play? Try these video lessons and learn fast Statutory Ape lessons
        
↑ Back to top | Tablatures and chords for acoustic guitar and electric guitar, ukulele, drums are parodies/interpretations of the original songs. You may use it for private study, scholarship, research or language learning purposes only