» » »

Black Dahlia Murder - Necropolis Tabs

Artists:  A B C D E F G H I J K L M N O P Q R S T U V W X Y Z # 

Necropolis Tabs

(ver. 1) Click to play this song!
Black Dahlia Murder
 Rating:
4/5 (4 votes)


 Necropolis lessons Tabs too difficult? Try these video lessons and learn fast
 
                The Black Dahlia Murder
Deflorate



Tuned To C Standard

Gtr I (C F Bb Eb G C)
Gtr II (C F Bb Eb G C)
Gtr III (C F Bb Eb G C)
Gtr IV (C F Bb Eb G C)

 Intro
  Q=158
 4/4
  Gtr I
    PM----|         PM--|           PM--|        PM--|
  |--3--| |--3--| |-3-| |-3--|   |-3--| |-3--| |-3-| |-3--|
  E E   E E   E E E E E E  E E   E  E E E  E E E E E E  E E
|------------------------------|-----------------------------|
|------------------------------|-----------------------------|
|------------------------------|-----------------------------|
|-9---------------9------------|-9-------------9-------------|
|------------------------------|-----------------------------|
|---7---6-7--10p7---7-6-7-10p7-|----7-6-7-10p7---7-6-7-10p7--|
|
| Gtr II
|                                                    |-3--|
| E   E   H.                     H.                  E  E E
|------------------------------|-----------------------------|
|------------------------------|-----------------------------|
|------------------------------|-----------------------------|
|-9---x------------------------|--------------------------9S=|
|-9---x------------------------|-----------------------------|
|-7---x------------------------|-----------------------------|


    PM--|       PM--|         PM--|       PM|   PM
  |-3-| |-3-| |-3-| |-3-|   |-3-| |-3-| |-3-| |-3-|
  E E E E E E E E E E E E   E E E E E E E E E E E E
|-------------------------|-------------------------|
|-------------------------|-------------------------|
|-------------------------|-------------------------|
|-5-----------5-----------|-5-----------5-----4---8-|
|-------------------------|-------------------------|
|---6-3-6-7p6---6-3-6-7p6-|---6-3-6-7p6---6-3---6---|
|
|   PM--|       PM--|         PM--|   PM  PM|   PM
| |-3-| |-3-| |-3-| |-3-|   |-3-| |-3-| |-3-| |-3-|
| E E E E E E E E E E E E   E E E E E E E E E E E E
|-------------------------|-------------------------|
|-------------------------|-------------------------|
|-------------------------|-------------------------|
|-5-----------5-----------|-5-----------5---------5-|
|-------------------------|---------5---------5-----|
|---6-3-6-7p6---6-3-6-7p6-|---6-3-6---6---6-3---6---|


  Gtrs I, II
    PM--|        PM--|          PM--|        PM--|
  |-3-| |-3--| |-3-| |-3--|   |-3-| |-3--| |-3-| |-3--|
  E E E E  E E E E E E  E E   E E E E  E E E E E E  E E
|---------------------------|---------------------------|
|---------------------------|---------------------------|
|---------------------------|---------------------------|
|-9------------9------------|-9------------9------------|
|---------------------------|---------------------------|
|---7-6-7-10p7---7-6-7-10p7-|---7-6-7-10p7---7-6-7-10p7-|


  Gtr I
    PM--|        PM--|          PM--|        PM----|
  |-3-| |-3--| |-3-| |-3--|   |-3-| |-3--| |-3-| |-3--|
  E E E E  E E E E E E  E E   E E E E  E E E E E E  E E
|---------------------------|---------------------------||
|---------------------------|---------------------------||
|---------------------------|---------------------------||
|-8------------8------------|-8------------8----------8-||
|---------------------------|-----------------------7---||
|---9-6-9-12p9---9-6-9-12p9-|---9-6-9-12p9---9-6-9------||
|
| Gtr II
|   PM--|        PM--|          PM--|        PM----|
| |-3-| |-3--| |-3-| |-3--|   |-3-| |-3--| |-3-| |-3--|
| E E E E  E E E E E E  E E   E E E E  E E E E E E  E E
|---------------------------|---------------------------||
|---------------------------|---------------------------||
|---------------------------|---------------------------||
|---------------------------|---------------------------||
|-9-7---7-10p7-9-7---7-10p7-|-9-7---7------9-7---7-10-9-||
|-----6------
            
Submit corrections



        Necropolis lessons Hard to play? Try these video lessons and learn fast Necropolis lessons
        
↑ Back to top | Tablatures and chords for acoustic guitar and electric guitar, ukulele, drums are parodies/interpretations of the original songs. You may use it for private study, scholarship, research or language learning purposes only