» » »

Black Dahlia Murder - Funeral Thirst Tabs

Artists:  A B C D E F G H I J K L M N O P Q R S T U V W X Y Z # 

Funeral Thirst Tabs

(ver. 2) Click to play this song!
Black Dahlia Murder
 Rating:
4/5 (4 votes)

 Funeral Thirst lessons Tabs too difficult? Try these video lessons and learn fast
 
                -------------------------------------------------------------------------------
                             FUNERAL THIRST - The Black Dahlia Murder
-------------------------------------------------------------------------------


artist- the black dahlia murder
album- unhallowed
song- funeral thirst

i've seen problems about tunings on nearly every site that has black dahlia murder tabs.
after seeing their show, i had a chance to talk to guitarist brian eschbach and he said 
all their
stuff is in C standard, not drop C.  while for the most part, the tabs that are 
for drop C
are not wrong, bdm plays in C standard, so this is probably closer to the way that they 
it,
and it kinda sounds a bit better.

corrections and whatnot?
or just PM me, that works too.

for some parts where its nothing but fast repetition of a single note, like in the
line after the solo,
i didn't put the exact number of times each note is played.
listen to the song and you'll get a feel for it.

also, theres some random parts like in the breakdowns where they palm mute notes, like
open C longer than
previously in the song.  i may have missed some of these parts, so just listen up for them.

note:
a lot of the rythmns are in tripplets, so i tried to write something like "-000-" or 
to show it.

everything is pretty much here, i'll leave it up to you to put it into order.

Tuning: C STANDARD (C-F-A#-D#-G-C)

P.M.  - palm mute           /  - slide up to
     - slide down to       ~  - vibrato
h     - hammer on           b  - Bend
p     - pull off               Suffixes for bend
t     - tap                 f  - full bend    h - half bend
P.H.  - pinched harmonic    q  - quarter bend t - tap bend
*     - see comment,update  ^  - Hold bend    r release bend
x     - stuccatto           ~  - vibrato bend
,     - slight palm mute    () - ghost note, sustained note, harmonic
"     - tremolo note        <> - Trill


------------------------------------------------------------------------------------------
GUITAR ONE/RYTHMN----- John Kempainen
------------------------------------------------------------------------------------------

INTRO:
   P.M........................
C |-----------------------------------|
G |-----------------------------------|
D#|-----------------------------------|
A#|-(9)-------------(5)---------------|
F |--7----7----7-----3----3----2h3p2--|
C |----00---00-----0---00---00--------|


VERSE:
   P.M.............................................................
C |----------------------------------------------------------------|
G |----------------------------------------------------------------|
D#|----------------------------------------------------------------|
A#|----------------------------------------------------------------|
F |--7----7----10---9----9----9------------------10---7----7----9~-|
C |----00---00----0---00---00---0--11-8-8-11-8-8----0---00---00----|

CHORUS I:
("= tremelo picking)                P.M......
C |-------------------------------------------|
G |-------------------------------------------|
D#|-------------------------------------------|
A#|-------------------------------------------|
F |--3"-0"-2"-0"-3"-5"--3"-0"-2"-0"-(2)-------|
C |----------------------------------0-00-000-|

C |------------------------------------------|
G |------------------------------------------|
D#|------------------------------------------|
A#|------------------------------------------|
F |--3"-0"-2"-0"-3"-5"--3"-0"-2"-0"--3p2-----|
C |--------------------------------------5-3-|


VERSE :
   P.M.............................................................
C |----------------------------------------------------------------|
G |----------------------------------------------------------------|
D#|----------------------------------------------------------------|
A#|----------------------------------------------------------------|
F |--7----7----10---9----9----9------------------10---7----7----9~-|
C |----00---00----0---00---00---0--11-8-8-11-8-8----0---00---00----|

 CHORUS II:                          PM......
C |-------------------------------------------------------------------------|
G |-------------------------------------------------------------------------|
D#|-------------------------------------------------------------------------|
A#|-------------------------------------------------------------------------|
F |--3"-0"-2"-0"-3"-5"--3"-0"-2"-0"-(2)--------3"-0"-2"-0"-3"-5"------------|
C |----------------------------------0-00-000-------------------------------|

C |----------------------|
G |----------------------|
D#|----------------------|
A#|----------------------|
F |-3"-0"-2"-0"--3p2-----|
C |------------------5-3-|

                                    P.M......
C |------------------------------------------------------------------------|
G |------------------------------------------------------------------------|
D#|------------------------------------------------------------------------|
A#|------------------------------------------------------------7"-5"-4"----|
F |--3"-0"-2"-0"-3"-5"--3"-0"-2"-0"---------3"-0"-2"-0"-3"-5"-----------6~~|
C |---------------------------------0-00-00--------------------------------|

BREAKDOWN I:
breakdown riff A-
    P.M......                P.M.........................
C |--------------------------------------------------------------------------|
G |--------------------------------------------------------------------------|
D#|--------------------------------------------------------------------------|
A#|--------------------------------------------------------------------------|
F |-----------10-9-8-8-9-10-----------------5---------------10-9-8-8-9-10----|
C |--000-000-----------------000-000--8-7-5---8-7--000-000-------------------|

C |--------------------|
G |--------------------|
D#|--------------------|
A#|--------------------|
F |-12"-10"-9"-6~------|
C |--------------------|

breakdown riff B-
   P.M..          P.M.....          P.M..................          P.M.....
C |-------------------------------------------------------------------------|
G |-------------------------------------------------------------------------|
D#|-------------------------------------------------------------------------|
A#|---------------------------------(2)-------------------------------------|
F |------10-9-10-----------12-10-9~-(2)-------------------10-9-10-----------|
C |--888----------10-10-10-----------000-000-000-000--888----------10-10-10-|

C |------------------|
G |------------------|
D#|------------9-8---|
A#|------------------|
F |-12-9-10-9~-7-6---|
C |---------7~-------|


    P.M..          P.M.....          P.M..................          P.M.....
C |-------------------------------------------------------------------------|
G |-------------------------------------------------------------------------|
D#|-------------------------------------------------------------------------|
A#|---------------------------------(2)-------------------------------------|
F |------10-9-10-----------12-10-9~-(2)-------------------10-9-10-----------|
C |--888----------10-10-10-----------000-000-000-000--888----------10-10-10-|

C |-------------------|
G |-------------------|
D#|-------------9-8---|
A#|-------------------|
F |--12-9-10-9~-7-6---|
C |----------7~-------|


breakdown riff C
   P.M..............               P.M...........    ..   .
C |-----------------------------------------------------------------------|
G |-----------------------------------------------------------------------|
D#|-----------------------------------------------------------------------|
A#|-----------------------------------------------------------------------|
F |--222-222-222-222-----------1-6----------------------7----6---3-2-3p2--|
C |--000-000-000-000-1-44-44-1-1-6-000-000-000-000---00---0---------5-----|

SOLO:

 solo riff A:
    P.M.........................................................................
C |-------------------------------------------------------------------------|
G |-------------------------------------------------------------------------|
D#|-------------------------------------------------------------------------|
A#|-------------------------------------------------------------------------|
F |---8-8-8--8-8-8-777-777-222-222-222-222---8-8-8--8-8-8-777-777-222-222---|
C |--101010-101010-555-555-000-000-000-000--101010-101010-555-555-000-000---|

C |---------|
G |---------|
D#|---------|
A#|---------|
F |-222-222-|
C |-000-000-|

     P.M.........................................................................
C |-------------------------------------------------------------------------|
G |-------------------------------------------------------------------------|
D#|-------------------------------------------------------------------------|
A#|-------------------------------------------------------------------------|
F |---8-8-8--8-8-8-777-777-222-222-222-222---8-8-8--8-8-8-777-777-222-222---|
C |--101010-101010-555-555-000-000-000-000--101010-101010-555-555-000-000---|

C |---------|
G |---------|
D#|---------|
A#|---------|
F |-222-222-|
C |-000-000-|

  solo riff B: P.M...........                                    ...........
C |-------------------------------------|-(three times through.)|
G |-------------------------------------|-----------------------|
D#|-------------------------------------|-----------------------|
A#|-------------------------------------|----(9)---(7)-----(12)-|
F |--10~--12~--222-222-222-222--10---9--|----10-----9-------14--|
C |--8-~--10~--000-000-000-000--8--5/7--|000----000----000------|
(the notes in parenthesis may be played by the rythmn line,
    or they might be dubbed in on another track, either way, i included them)

C |(fourth time, end with this...)-------|
G |--------------------------------------|
D#|--------------------------------------|
A#|--------------------------------------|
F |-----------2--------------------------|
C |-000000000-0-5-8-7-0-000000000-3-5-2--|


BRIDGE:

    P.M..............           P.M...........
C |---------------------------------------------------|
G |---------------------------------------------------| repeat this line
D#|---------------------------------------------------|   a bunch of times
A#|---------------------------------------------------|
F |---------------------------------------------------|
C |--0-000000000000000-5-8-7--0-000000000000000-3-5-2-|

"i shall walk the earth once more..."

*pause*

  CHORUS III:                        PM......
C |---------------------------------------------------------------------|
G |---------------------------------------------------------------------|
D#|---------------------------------------------------------------------|
A#|---------------------------------------------------------------------|
F |--3"-0"-2"-0"-3"-5"--3"-0"-2"-0"-(2)--------3"-0"-2"-0"-3"-5"--------|
C |----------------------------------0-00-000---------------------------|

C |----------------------|
G |----------------------|
D#|----------------------|
A#|----------------------|
F |-3"-0"-2"-0"--3p2-----|
C |------------------5-3-|


                                    P.M.............
C |--------------------------------------------------------------------------|
G |--------------------------------------------------------------------------|
D#|--------------------------------------------------------------------------|
A#|--------------------------------------------------------------------------|
F |--3"-0"-2"-0"-3"-5"--3"-0"-2"-0"-(2)-------3"-0"-2"-0"-3"-5"--------------|
C |----------------------------------0-00-000--------------------------------|

C |------------------------------|
G |------------------------------|
D#|------------------------------|
A#|------------------------------|
F |-3"-0"-2"-0"-(2)--------------|
C |--------------0-00-000-000-00-|

------------------------------------------------------------------------------------------
GUITAR TWO/LEADS-----Brian Eschbach
------------------------------------------------------------------------------------------


INTRO:
    P.M........................
C |-----------------------------------|----------------------------------|
G |-----------------------------------|(fourth time through, play this)--|
D#|-----------------------------------|----------------------------------|
A#|-(9)-------------(5)---------------|----------------------------------|
F |--7----7----7-----3----3----2h3p2--|-10----10----10---6----7----7h9p7-|
C |----00---00-----0---00---00--------|----00----00----0---00---00-------|


VERSE:
  P.M.............................................................
C |----------------------------------------------------------------|
G |----------------------------------------------------------------|
D#|----------------------------------------------------------------|
A#|----------------------------------------------------------------|
F |--7----7----10---9----9----9------------------10---7----7----9~-|
C |----00---00----0---00---00---0--11-8-8-11-8-8----0---00---00----|

  P.M.............................................................
C |--------------------------------------------------------------------|
G |--------------------------------------------------------------------|
D#|--------------------------------------------------------------------|
A#|------------------------------------------------9-------------------|
F |--10----10----14---12----12----12----9----9---------10----10----12~-|
C |-----00----00----0----00----00----0----88---88----8----00----00-----|


CHORUS:
("= tremelo picking)                P.M......
C |-------------------------------------------|
G |-------------------------------------------|
D#|-------------------------------------------|
A#|-------------------------------------------|
F |--7"-2"-6"-2"-7"-9"--7"-2"-6"-2"-(2)-------|
C |----------------------------------0-00-000-|

C |------------------------------------------|
G |------------------------------------------|
D#|------------------------------------------|
A#|------------------------------------------|
F |--7"-2"-6"-2"-7"-9"--7"-2"-6"-2"--3p2-----|
C |--------------------------------------5-3-|

VERSE II:
  P.M.............................................................
C |----------------------------------------------------------------|
G |----------------------------------------------------------------|
D#|----------------------------------------------------------------|
A#|----------------------------------------------------------------|
F |--7----7----10---9----9----9------------------10---7----7----9~-|
C |----00---00----0---00---00---0--11-8-8-11-8-8----0---00---00----|

  P.M.............................................................
C |--------------------------------------------------------------------|
G |--------------------------------------------------------------------|
D#|--------------------------------------------------------------------|
A#|------------------------------------------------7-------------------|
F |--10----10----14---12----12----12----7----7---------10----10----12~-|
C |-----00----00----0----00----00----0----88---88----8----00----00-----|

 CHORUS II:
                                     PM......
C |---------------------------------------------------------------|
G |---------------------------------------------------------------|
D#|---------------------------------------------------------------|
A#|---------------------------------------------------------------|
F |--7"-2"-6"-2"-7"-9"--7"-2"-6"-2"-(2)--------7"-2"-6"-2"-7"-9"--|
C |----------------------------------0-00-000---------------------|

C |----------------------|
G |----------------------|
D#|----------------------|
A#|----------------------|
F |-7"-2"-6"-2"--3p2-----|
C |------------------5-3-|

                                    P.M......                                P.H.
C |----------------------------------------------------------------|
G |----------------------------------------------------------------|
D#|----------------------------------------------------------------|
A#|----------------------------------------------------------------|
F |--7"-2"-6"-2"-7"-9"--7"-2"-6"-2"-(2)--------7"-2"-6"-2"-7"-9"---|
C |----------------------------------0-00-000----------------------|

                P.H..
C |----------------------|
G |----------------------|
D#|----------------------|
A#|----------------------|
F |-15"-14"-12"-9***~~---|
C |----------------------|


BREAKDOWN I:
breakdown riff A-
    P.M......                P.M.........................
C |--------------------------------------------------------------------------|
G |--------------------------------------------------------------------------|
D#|--------------------------------------------------------------------------|
A#|--------------------------------------------------------------------------|
F |-----------10-9-8-8-9-10-----------------5---------------10-9-8-8-9-10----|
C |--000-000-----------------000-000--8-7-5---8-7--000-000-------------------|

                P.H..
C |----------------------|
G |----------------------|
D#|----------------------|
A#|----------------------|
F |-15"-14"-12"-9***~~---|
C |----------------------|


breakdown riff B-
   P.M..          P.M.....          P.M................
C |-------------------------------------------------------------|
G |-------------------------------------------------------------|
D#|-------------------------------------------------------------|
A#|------9-7-9----------10-9-7---(2)--------------------9-7-9---|
F |------------------------------(2)----------------------------|
C |--888-------10-10-10-----------000-000-000-000--888----------|

   P.M......
C |---------------------------------|
G |---------------------------------|
D#|-------------------------12-11---|
A#|-----------10-9-7-8--------------|
F |------------------6~~~---10-9----|
C |-10-10-10------------------------|


breakdown riff C
   P.M..............               P.M...........    ..   .
C |------------------------------------------------------------------------|
G |------------------------------------------------------------------------|
D#|------------------------------------------------------------------------|
A#|------------------------------------------------5---5-4-----------------|
F |--222-222-222-222-----------1-6-------------------------6-6-------------|
C |--000-000-000-000-1-44-44-1-1-6-000-000-000-000---00---------8-7-5------|

SOLO:
*note*- towards the last part when he walks down the scale in tripplets, he slurs a note somewhere,
i wasnt able to figure out exactly what it was, so i just tabbed the scale straight forward.
but if anyone knows, lemme know and i'll fix it.

C |------------------------------------------------------------|
G |------------------------------------------------------------|
D#|--19b-17h19p17-16-------------16-17-16---------16-17-16-----|
A#|------------------17--------17---------17----17---------17--|
F |---------------------19~--19---------------19---------------|
C |------------------------------------------------------------|

C |-----------------------|
G |-----------------------|
D#|-19-17-16-17--16---16~~|
A#|----------------19-----|
F |-----------------------|
C |-----------------------|

C |--------------------------------------------------------------------------|
G |--------------------------------------------------------------------------|
D#|--1614--14--14/16--16--1612--12--12/14--14--1412--12--1211--11-11~~-------|
A#|--------------------------------------------------------------------------|
F |--------------------------------------------------------------------------|
C |--------------------------------------------------------------------------|

C |---------------------------------------------|
G |------------------12-------------------------|
D#|-12-11----14-12-11----14-12-11h12p11---------|
A#|------14----------------------------12/14~~--|
F |---------------------------------------------|
C |---------------------------------------------|

C |------------------------------------------------------17~~~~~~-----------|
G |--15/17-17-17-17-17-17-17-17-17-17--20-19-17-17-19-20--------------------|
D#|-------------------------------------------------------------------------|
A#|-------------------------------------------------------------------------|
F |-------------------------------------------------------------------------|
C |-------------------------------------------------------------------------|

C |-17br--17h19p17----17------------------|
G |-----------------20---20-19-20-19-17~~-|
D#|---------------------------------------|
A#|---------------------------------------|
F |---------------------------------------|
C |---------------------------------------|

  all tripplets....
      1 2 3   1 2 3   1 2 3   1 2 3...................and so on......
C |-------22------22------22------22--22-20-19-20-19----19------------------|
G |--19h20---19h20---19h20---19h20-------------------22----22-20-22-20-19---|
D#|-------------------------------------------------------------------------|
A#|-------------------------------------------------------------------------|
F |-------------------------------------------------------------------------|
C |-------------------------------------------------------------------------|

C |-------------------------------------------------------|
G |-20-19---19--------------------------------------------|
D#|------21---19h21p19-17h19p17-16h17p16---16-------------|
A#|-----=--------------------------------19---19-17-16~~--|
F |-------------------------------------------------------|
C |-------------------------------------------------------|

 again, tripplets
C |--12t14p12p10--12t14p12p10--12t14p12p10--12t14p12p10--12t15p12p10--|
G |-------------------------------------------------------------------|
D#|-------------------------------------------------------------------|
A#|-------------------------------------------------------------------|
F |-------------------------------------------------------------------|
C |-------------------------------------------------------------------|

C |-12t17p12p10--12t15p12p10--12t17p12p10---|
G |-----------------------------------------|
D#|-----------------------------------------|
A#|-----------------------------------------|
F |-----------------------------------------|
C |-----------------------------------------|


tripplets....i tried to keep the notes in 3 note groups to show rythmn....
                                  1  2  3   1  2  3........
C |--14p12-12-12h14-14-14~-12~~--1412-12--12/14-14--14/15-15--1514-14--------|
G |--------------------------------------------------------------------------|
D#|--------------------------------------------------------------------------|
A#|--------------------------------------------------------------------------|
F |--------------------------------------------------------------------------|
C |--------------------------------------------------------------------------|

C |-14/15-15--15/17-17--1715-15------|
G |----------------------------------|
D#|----------------------------------|
A#|----------------------------------|
F |----------------------------------|
C |----------------------------------|


C |---15/17-17--17/19-19--1917-17--1715-15--1514-14--12~~~~~------------|
G |---------------------------------------------------------------------|
D#|---------------------------------------------------------------------|
A#|---------------------------------------------------------------------|
F |---------------------------------------------------------------------|
C |---------------------------------------------------------------------|


everything for guitar 2 is here, just listen to the song and string it all together.


SONG ORDER-(according to guitar 1)
intro X4
verse X4
chorus I X2
verse X4
chorus II X
breakdown riff A X2
breakdown riff B X1
breakdown riff C X2
solo riff A X1
solo riff B X4
bridge X4
breakdown riff A X2
breakdown riff B X1
breakdown riff C X2

rate it if you like it.

and i'll fix anything that needs correcting, just let me know.

-peace.
            
Submit corrections


        Funeral Thirst lessons Hard to play? Try these video lessons and learn fast Funeral Thirst lessons
        
↑ Back to top | Tablatures and chords for acoustic guitar and electric guitar, ukulele, drums are parodies/interpretations of the original songs. You may use it for private study, scholarship, research or language learning purposes only