» » »

Black Dahlia Murder - Elder Misanthropy Tabs

Artists:  A B C D E F G H I J K L M N O P Q R S T U V W X Y Z # 

Elder Misanthropy Tabs

(ver. 3) Click to play this song!
Black Dahlia Murder
 Rating:
4/5 (4 votes)

 Elder Misanthropy lessons Tabs too difficult? Try these video lessons and learn fast
 
                                               ELDER MISANTHROPY
                            The Black Dahlia Murder
                       (From The 2003 Album Unhallowed)



Gtr 1 & 2 - Tuning (C F A# D# G C)

Legend: . - palm mute
	x - stacatto
	+ - tremolo picking



 Intro
|-----------|
|-----------|
|--10----7--|
|--10----7--|
|--8-----5--|

Riff 1
|------------------------------------------------------------------|
|------------------------------------------------------------------|
|------------------------------------------------------------------|
|---9-7------------------9-7---------------------------------------|
|-------10-9-10-9-7h9p7------10-9-10-9-7h9p7--9-10-9h10--10-9-9h10-|
|-00-0-0-0-0-0-0-------00-0-0-0-0-0-0-------88-8--8-----66-6--6----|
  .. . . . . . .       .. . . . . . .       .. .  .     .. .  .

Riff 2
 Gtr.1
|-------------------------|------------------------|
|-------------------------|------------------------|
|-------------------------|------------------------|
|-22-22-22-22-"""""""""ph-|--22-22-22-22-"""""""---|
|-22-22-22-22-7679109766~-|--22-22-22-22-7679767ph-|
|-00-00-00-00-------------|--00-00-00-00--------8~-|
  .. .. .. ..                .. .. .. ..

 Gtr. 2
|------------------------|------------------------|
|------------------------|------------------------|
|-------------""""""""ph-|-------------"""""""----|
|-22-22-22-22-545797544~-|-22-22-22-22-5457545"ph-|
|-22-22-22-22------------|-22-22-22-22--------77~-|
|-00-00-00-00------------|-00-00-00-00------------|
  .. .. .. ..              .. .. .. ..

|---------|
|---------|
|---------|
|-2~---22-|
|-2~---22-|
|-0~---00-|
       ..
Riff 3 Both Guitars             Gtr 1 end   Gtr 2 end
|---------------------------------|------|  |-----|
|---------------------------------|------|  |-----|
|---------------------------------|------|  |--""-|
|----"-"---"-""---------"-"---"-"-|--"-"-|  |-109-|
|----910---9109---------910---910-|-1210-|  |-----|
|-000---000----101010888----888---|------|  |-----|
  ...   ...     . . ....    ...
                       Gtr 1 end  Gtr 2 end
|-------------------|-----------|----------|
|-------------------|-----------|----------|
|-------------------|-----------|----------|
|----"-"---"-""-----|-----------|-5-7-9-10-|
|----910---9109-----|-7-9-10-12-|----------|
|-000---000----1010-|-----------|----------|
  ...   ...     . .

Repeat Riffs 1 & 2 ending Riff 2 with the end of Riff 3

Chorus ( Both Guitars first two counts, Then corresponding)
|---------------------------------------------|
|---------------------------------------------|
|----2-5p3p2-5--2-5p3p2-7--2-5p3p2---5p4--5p4-|
|-2----------5----------7----------2----2-----|
|-2----------3-3-3------5-5-5-----------------|
|-0-0-0---------------------------------------|
    . .        . .        . .      .    .
 Gtr 1
|---------------------------------------------|
|---------------------------------------------|
|----2-5p3p2-5--2-5p3p2-7--2-5p3p2---5p4--5p4-|
|-2----------5----------7----------2----2-----|
|-2----------3-3-3------5-5-5-----------------|
|-0-0-0---------------------------------------|
    . .        . .        . .      .    .
 Gtr 2
|---------------------------------------------|
|---------------------------------------------|
|---------------------------------------------|
|-2----9p7---10---9p7----12----9p7----7p5-7p5-|
|-2--10---10-10--8----10-12---8---10----------|
|-0-0--------8--8--------10-10-------5---5----|
    .           .            .       .   .

Bridge
|--------------------------------------|--------------------------------------|
|--------------------------------------|--------------------------------------|
|--------------------------------------|--------------------------------------|
|-2-22222-------------2-22222----------|-2-22222-11-12-11-8~-2-22222-------(8)|
|-2-22222-9-10-9-6~---2-22222--7----(6)|-2-22222-------------2-22222--7-------|
|-0-00000--0--0-0-----0-00000-7-8757---|-0-00000---0--0--0---0-00000-7-8757---|
    .....  .  . .       ..... . ....       .....   .  .  .     .....

Pre Chorus
|-------------------------|   |----------------------|
|-------------------------|   |----------------------|
|-------------------------|   |----------------------|
|-------------------------|   |----------------------|
|-9-10-12-10-9-10-12-10-9-|   |-7-9-10-9-7-9-12-10-9-|
|-------------------------|x2 |----------------------|x2

Repeat Chorus & Riff 1

 Outro
|------------------------|-----------------|
|------------------------|-----------------|
|------------------------|-----------------|
|----12-10-9-7-9-7-5h7p5-|-------------542-|
|------------------------|----10-8-7-5-542-|
|--00--0--0-0-0-0-0------|--00--0-0-0--320-|
   ..  .  . . . . .         ..  . . .  ..
            
Submit corrections


        Elder Misanthropy lessons Hard to play? Try these video lessons and learn fast Elder Misanthropy lessons
        
↑ Back to top | Tablatures and chords for acoustic guitar and electric guitar, ukulele, drums are parodies/interpretations of the original songs. You may use it for private study, scholarship, research or language learning purposes only