» » »

Birds Of Tokyo - The Dark Side Of Love Bass

Artists:  A B C D E F G H I J K L M N O P Q R S T U V W X Y Z # 

The Dark Side Of Love Bass

(ver. 1) Click to play this song!
Birds Of Tokyo
 Rating:
4/5 (4 votes)


 The Dark Side Of Love lessons Tabs too difficult? Try these video lessons and learn fast
 
                Tuning:  Standard

My rhythm spacing is not very great, but pretty much large spaces between notes signify
a whole note, --- are a quarter note, - an eighth note, and no space a sixteenth note.
This applies to all but the parts of the verses with note repeats in parenthesis, which 
are spaced out differently because I didn't feel like typing out every eighth note. This
tab is not entirely accurate, I fudged some notes just because I couldn't figure them 
out listening through my built-in computer speakers.


INTRO
|-----------------------| low notes of the piano/synth part
|-----------------------|
|--6--------4-----------|
|--------------------4--|


VERSE 1

|----------------------------------------------------|(x2)
|----------------------------------------------------|
|--2/6(x14)-------4(x14)-----------------------------|
|------------6-6-----------6-6--4(x10)--2-2-4-4-6-6--|

|----------------------------------------------|
|---------4-4----------------------------------|
|--6(x14)------4(x14)---------------------4-4--|
|---------------------6-6--4(x10)-2-2-4-4------|

|----------------------------------------|
|----------4-4---------------------------|
|--6(x14)-------4(x14)-------------------|
|-------------------------6-6----4(x16)--|


PRE CHORUS 1

|------------------------------------------------------|
|------------------------------------------------------|
|------------7--------7-------------7-----7---9-7-6----|
|--0-------0------------0---------0-----0---0-------9--|


CHORUS 1

|-----------------------------------------------------------------------|(x4)
|-----------------------------------------------------------------------|
|------------------------------4-4-6-6-6-6-6-6-6-6-6-6-6-6-6-6-7-7-7-7--|
|--7-7-7-7-7-7-7-7-4-4-4-4-4-4------------------------------------------|


VERSE 2

|----------------------------------------------------|(x2)
|----------------------------------------------------|
|-----------2-2-----------2-2--4-(x10)--6-6-4-4------|
|--4-(x14)-------2-(x14)------------------------2-2--|

|----------------------------------------------------|
|-------------------------2-2------------------------|
|-----------2-2----------------4-(x10)--6-6-4-4------|
|--4-(x14)-------2-(x14)------------------------2-2--|

|---------------------------------------|
|-------------------------2-2-----------|
|-----------2-2----------------4-(x16)--|
|--4-(x14)-------2-(x14)----------------|


PRE CHORUS 2

|---------------------------------------------------------|
|---------------------------------------------------------|
|----------------------------------------/-7-7-7-7-7-7-7--|
|--0--0--0--0--0--0--0--0--0--0--0--0--0------------------|


CHORUS 2

|-------------------------------------------------------------------|(x2)
|-------------------------------------------------------------------|
|------------------4-4-4-4-4-4-2-2----------------------------------|
|--0-0-0-0-0-0-0-0-----------------4-4-4-4-4-4-4-4-4-4-4-4-5-5-5-5--|

|--------------------------------------------------------------------------|(x2)
|--------------------------------------------------------------------------|
|--------------------4---4---4-4---2---------------------------------------|
|--0---0---0-0---0---------------------4---4---4-4---4---4---5-5-5-5-5-5---|


BRIDGE

|-----------6666666666666666--|
|-----------------------------|
|--4-(x24)--------------------|
|-----------------------------|


CHORUS 3

|-----------------------------------------------------------------------|(x6)
|-----------------------------------------------------------------------|
|--2-2-2-2-2-2-2-2-------------4-4-6-6-6-6-6-6-6-6-6-6-6-6-6-6-7-7-7-7--|
|------------------4-4-4-4-4-4------------------------------------------|

END

|-------|
|--4h6--|
|-------|
|-------|

Thank you for checking out this tab!
            
Submit corrections



        The Dark Side Of Love lessons Hard to play? Try these video lessons and learn fast The Dark Side Of Love lessons
        
↑ Back to top | Tablatures and chords for acoustic guitar and electric guitar, ukulele, drums are parodies/interpretations of the original songs. You may use it for private study, scholarship, research or language learning purposes only