» » »

Biohazard - Buisness Tabs

Artists:  A B C D E F G H I J K L M N O P Q R S T U V W X Y Z # 

Buisness Tabs

(ver. 2) Click to play this song!
Biohazard
 Rating:
4/5 (4 votes)

 Buisness lessons Tabs too difficult? Try these video lessons and learn fast
 
                BIOHAZARD - "Business" (from "Urban Discipline", 1992)

Translated by Michiel Hautus from The Netherlands, 22 - 02 - 2001

tune down all strings one step


	symbols:
	/   = slide up
	\   = slide down
	 = artificial harmonic
	~   = vibrato
	x   = mute string
	

Main riff

E |-----------------------------------|-----------------------------------|
B |-----------------------------------|-----------------------------------|
G |-----------------------------------|-----------------------------------|
D |---4/5---5\4------7/8---8\7--------|---4/5---5\4------7/8---8\7--------|
A |---2/3---3\2------5/6---6\5---6/7--|---2/3---3\2------5/6---6\5---~-|
E |-0-----0------0-0-----0-----0-4/5--|-0-----0------0-0-----0------------|

E |-----------------------------------|-----------------------------------|
B |-----------------------------------|-----------------------------------|
G |-----------------------------------|-----------------------------------|
D |---4/5---5\4------7/8---8\7--------|-8-8-8-7-7-7---------------10--9---|
A |---2/3---3\2------5/6---6\5---6/7--|-6-6-6-5-5-5-6-6-6-7-7-7---8---7---|
E |-0-----0------0-0-----0-----0-4/5--|-------------4-4-4-5-5-5---8---7---|

First guitar plays E7 chord (05xxxx) instead of E artificial harmonic in second bar

Chorus
							    | let ring |
E |-----------------------------------|-----------------------------------|
B |-----------------------------------|-----------------------------------|
G |-----------------------------------|---------------0-----0-------------|
D |-----------------------------------|---------------0-----0-------------|
A |--5/7-7-5/7-7-5/7-7-5/7-7-8-7-5-7--|--5/7-7-5/7-7--x-------------------|
E |--3/5-5-3/5-5-3/5-5-3/5-5-6-5-3-5--|--3/5-5-3/5-5--3----------5-0-2-3--|

E |-----------------------------------|---------------------------------------|
B |-----------------------------------|---------------------------------------|
G |-----------------------------------|---------------------------------------|
D |-----------------------------------|-------------------------6----5--------|
A |--5/7-7-5/7-7-5/7-7-5/7-7-8-7-5-7--|--5/7-7-5/7-7--8----3----4----3----3-3-|
E |--3/5-5-3/5-5-3/5-5-3/5-5-6-5-3-5--|--3/5-5-3/5-5--6----1----4----3----1-1-|

Interlude

E |-----------------------------|-----------------------------|
B |-----------------------------|-----------------------------|
G |-----------------------------|-----------------------------|
D |-----5---------6-------------|-----------------------------|
A |-2-2-5---2-2-2-5-------5/7---|-2-2--5\4-4-4\3-3-3-3----7/8-|
E |-0-0-3---0-0-0-4-----0-3/5---|-0-0--3\2-2-2\1-1-1-1--0-5/6-|

E |-----------------------------|-----------------------------|
B |-----------------------------|-----------------------------|
G |-----------------------------|-----------------------------|
D |-----5---------6-------------|-----------------------------|
A |-2-2-5---2-2-2-5-------5/7---|-2-2---5---7-5-8-8-6-----7/8-|
E |-0-0-3---0-0-0-4-----0-3/5---|-0-0-0-3-0-5-3-6-6-4---0-5/6-|

Second guitar plays G and G# artificial harmonic with vibrato
instead of G5 and G#(+5) chord in first and third bar

Interlude end

  | play three times            | and then fourth time:       |
E |-----------------------------|-----------------------------|
B |-----------------------------|-----------------------------|
G |-----------------------------|-----------------------------|
D |-----------------------------|-----------------------------|
A |-2-2---5---7-5-8-8-6-----7/8-|-2-2---5---7-5-8-8-6---------|
E |-0-0-0-3-0-5-3-6-6-4---0-5/6-|-0-0-0-3-0-5-3-6-6-4---------|


General note: bass plays sometimes other tones than the root,
fifths and maybe sevenths, it gives a special sound!


More tabs (Samson, Rollins Band, Kiss, Paradise Lost, Motörhead, Black Sabbath):
            
Submit corrections


        Buisness lessons Hard to play? Try these video lessons and learn fast Buisness lessons
        
↑ Back to top | Tablatures and chords for acoustic guitar and electric guitar, ukulele, drums are parodies/interpretations of the original songs. You may use it for private study, scholarship, research or language learning purposes only