» » »

Billy Squier - Nobody Knows Tabs

Artists:  A B C D E F G H I J K L M N O P Q R S T U V W X Y Z # 

Nobody Knows Tabs

(ver. 2) Click to play this song!
Billy Squier
 Rating:
2.4/5 (27 votes)

 Nobody Knows lessons Tabs too difficult? Try these video lessons and learn fast
 
                Into: D Dmaj7 D7 B7* G/B C* D B7 Em7 A7

      D                   Dmaj7
I may get around...I may laugh alot...
           D7                              B7*
Now you'd think that I'd be happy with the life I got
       G/B             C*
Nobody knows...nobody sees
        D           B7               Em7   A7
Ain't nobody really knows the inner side o'me...
          
      D                     Dmaj7
I may seem secure...I could have it made...
          D7                            B7*
You might think you see a lucky man who made the grade
        G/B                C*
Nobody knows what dreams I see
        D            B7            Em7        A7
Ain't nobody really sure just who they wanna be...

D7                  G
But everybody has a place and time...
A#                 D
A chance to live...a need to find
D7                               G
We all got somethin' that we care about
A#        A            A7*
I propose you find it out...

         D                Dmaj7
It's not in a book...or a magazine...
        D7                                 B7*
Or the stars who guide our fortunes on the silver screen
           G/B            C*
Nobody knows...it's up to me
        D            B7             Em7        A7
Ain't nobody who can say it like it outght to be...


Solo over verse progression


D7                            G
I see my future at the rainbow's end
A#            D
Happy hours...timeless friends
D7                           G
And if I ever chance to find my way
A#             A        A7*
Rest assured...I will stay...

        D                   Dmaj7
You may see your life as a compromise
        D7                              B7*
You may live to find the promise dancin' in your eyes
        G/B                   C*
Nobody knows...it's meant to be...
        D               B7        Em7   A7
Let the magic of the moment say it all to me



Verse://
-------------
     D               Dmaj7           D7            B7*             G/B             C*           
E |--------2---------------2---------------2---------------2---------------3---------------3-------|
B |----3-------3-------2-------2-------1-------1-------4-------4-------0-------0-------1-------1---|
G |--2---2---2---2---2---2---2---2---2---2---2---2-------2---2---2-------0---0---0-------0---0---0-|
D |0---------------0---------------0-----------------4-------------------------------2-------------|
A |------------------------------------------------2-----------------2-------------3---------------|
E |----------------------------------------------------------------0-------------------------------|

  D          B7           Em7    A7
E |----------------2-------------------|
B |------3-------3---------0------2----|
G |----2-------------------------------|
D |--0----------4----------------2-----|
A |---------4-2----------2----0--------|
E |-------------------0----------------|

Bridge://
-------------
   D7          G               A#          D                  D7          G               A#           A   A7*
E|-2--2--2--2--3--3--3\5-5\7-7-6--6-6--6-2--2--2--2--5-3-2--2--2--2--2--3--3--3\5-5\7-7-6--6--6--6---5--5---5-|
B|-1--1--1--1--3--3------------6--6-6--6-3--3--3--3--7-5-3--1--1--1--1--3--3------------6--6--6--6---5--5---5-|
G|-2--2--2--2--0--0-4---5---7--7--7-7--7-2--2--2--2---------2--2--2--2--0--0-4---5---7--7--7--7--7---6--6---6-|
D|-0--0--0--0--0--0------------8--8-8--8-0--0--0--0---------0--0--0--0--0--0------------8--8--8--8---7--7---5-|
A|-------------2--2------------8--8-8--8--------------------------------2--2------------8--8--8--8---7--7---7-|
E|-------------3--3------------6--6-6--6--------------------------------3--3------------6--6--6--6---5--5---5-|

Solo://
-------------
E |---5-7~-5--------5-7~-5---------5-7~-5----------------5-333\2-2---------------------------------7v--9~-11^-|
B |\7--------8-7-\7--------8-7--\7--------8-7--7-555\4-4-----------5-7-8v--5-7-8v--8-7-8-10-7-8-10------------|
G |-----------------------------------------------------------------------------------------------------------|
D |-----------------------------------------------------------------------------------------------------------|
A |-----------------------------------------------------------------------------------------------------------|
E |-----------------------------------------------------------------------------------------------------------|            
Submit corrections


        Nobody Knows lessons Hard to play? Try these video lessons and learn fast Nobody Knows lessons
        
↑ Back to top | Tablatures and chords for acoustic guitar and electric guitar, ukulele, drums are parodies/interpretations of the original songs. You may use it for private study, scholarship, research or language learning purposes only