Home » B » Billy Squier »

Billy Squier - The Stroke Bass

Artists:  A B C D E F G H I J K L M N O P Q R S T U V W X Y Z # 

The Stroke Bass

(ver. 1) Click to play this song!
Billy Squier
 Rating:
4.3/5 (6 votes)
                This is an awsome song.



|--------------------------------|
|--------------------------------|
|--------r--e--s--t--------------|
|--------------------------------|
The bass joins at the next part.

|--------------------------------|
|--------------------------------|
|--------------------------------|
|-------5--3--1--0---------------|

|--------------------------------|
|--------------------------------|
|-5-----5-----5-----3------------|
|---------------------3----------|x2

|--------------------------------|
|--------------------------------|
|-5---5-5----5------3------------|
|---------------------3----------|

|--------------------------------|
|--------------------------------|
|-5---5-5----5----3-5-3-5-5------|
|---------------------------3----|

|--------------------------------|
|--------------------------------|
|---------33333-33333------------|
|--33333----------------5-3-1-0--|

|--------------------------------|
|--------------------------------|
|-----3--5---8--5---3------------|
|---------------------3----------|x3

|--------------------------------|
|--------------------------------|
|--3--5---8--5---8-5-------------|
|--------------------8-5-8-5-1---|

And that is The Stroke on Bass...
            
Submit corrections

↑ Back to top | Tablatures and chords for acoustic guitar and electric guitar, ukulele, drums are parodies/interpretations of the original songs. You may use it for private study, scholarship, research or language learning purposes only