» » »

Billy Squier - Lonely Is The Night Tabs

Artists:  A B C D E F G H I J K L M N O P Q R S T U V W X Y Z # 

Lonely Is The Night Tabs

(ver. 1) Click to play this song!
Billy Squier
 Rating:
3.4/5 (9 votes)

 Lonely Is The Night lessons Tabs too difficult? Try these video lessons and learn fast
 
                -------------------------------------------------------------------------------
-------------------------------------------------------------------------------

Tuning:EADGBe


            THIS IS THE CORRECTED TAB!

Intro:
e|---------0----------------|-------0----------|-------0---------------------|
B|---------0----------------|-------0----------|-------0---------------------|
G|---2h4-4-4---2p1-2p1------|-2h4-4-4---2p1-2~-|-2h4-4-4--2p1-2p1------------|
D|---------------------2----|------------------|------------------2------2---|
A|--------------------------|------------------|---------------------2h4-----|
E|-----------------------0--|------------------|-----------------------------|

e|----------------------0~|
B|----------------------0~|
G|------------------------|
D|------0-----0-----------|
A|--4h5---4h5----4-2------|
E|-------------------0~---|


first riff: X4
e|--------------|-----------------------|
B|--------------|-------------2-x-3-3-2-|
G|--9-9-9-7-x-9-|-9-9-9-x-7-x-2-x-2-2-2-|
D|--9-9-9-7-x-9-|-9-9-9-x-7-x-2-x-4-4-2-|
A|--7-7-7-5-x-7-|-7-7-7-x-5-x-0-x-0-0-0-|
E|--------------|-----------------------|

Second Riff (when drums come in): X6
e|---------------|-----------------------|
B|---------------|-------------2-x-3-3-2-|
G|--9-9-9-7-x-9\-|-9-9-9-x-7-x-2-x-2-2-2-|
D|--9-9-9-7-x-9\-|-9-9-9-x-7-x-2-x-4-4-2-|
A|--7-7-7-5-x-7\-|-7-7-7-x-5-x-0-x-0-0-0-|
E|---------------|-----------------------|

Bridge:  (Red lights Green lights)
e|------------------------------------------------|
B|--------4h5-5------4h5-5-------4h5-5------4h5-5-|
G|--4--4--4-4-4-4--4-4-4-4--4--4-4-4-4-4--4-4-4-4-|
D|--4--4--4h6-6-4--4-4h6-6--4--4-4h6-6-4--4-4h6-6-|
A|--2--2--------2--2--------2--2-------2--2-------|
E|------------------------------------------------|

e|-------------------------------------------------|
B|-------7h8-8------7h8-8------7h8-8------7h8-8----|
G|--7--7-7-7-7-7--7-7-7-7-7--7-7-7-7-7--7-7-7-7-7\-|
D|--7--7-7h9-9-7--7-7h9-9-7--7-7h9-9-7--7-7h9-9-9\-|
A|--5--5-------5--5-------5--5-------5--5-------7\-|
E|-------------------------------------------------|

pre and during solo: just abunch of E5 chords with the ocasional D5, listen to song and 
hear it.


litte riff:
e|--5/7-5-4-|       |---------|
B|--7/9-7-5-|       |-7/9-7---|
G|----------|   OR  |-------9-|
D|----------|       |---------|
A|----------|       |---------|
E|----------|       |---------|

I'm not sure how right everything is I'm having to do it from memory, but it should be 
the bridge may be wrong.

| /  slide up
| \  slide down
| h  hammer-on
| p  pull-off
| ~  vibrato
| +  harmonic
| x  Mute note
===============================================================================
            
Submit corrections


        Lonely Is The Night lessons Hard to play? Try these video lessons and learn fast Lonely Is The Night lessons
        
↑ Back to top | Tablatures and chords for acoustic guitar and electric guitar, ukulele, drums are parodies/interpretations of the original songs. You may use it for private study, scholarship, research or language learning purposes only