» » »

Billy Paul - Let Em In Bass

Artists:  A B C D E F G H I J K L M N O P Q R S T U V W X Y Z # 

Let Em In Bass

(ver. 1) Click to play this song!
Billy Paul
 Rating:
4/5 (4 votes)

 Let Em In lessons Tabs too difficult? Try these video lessons and learn fast
 
                Tuning: Standard(E-A-D-G)
Difficulty: Easy



Intro : 

G|--------|
D|--------|
A|--------|
E|-1--1---|

G|-------------|
D|-------------|
A|-1--1--1--1--|
E|-------------| x7

G|------------|
D|------------|
A|-1--1--1----|
E|---------1--|

Verse : 

G|-------------|
D|-------------|
A|-1--1--1--1--|
E|-------------| x16

Chorus : 

G|--------------------------|
D|--------------------------|
A|----------3--1--1---------|
E|-1--3--4-----------4--3---| x3

G|-----------------------------------|
D|-------------3------------3--------|
A|---------------------3-------------|
E|-1--1--1--1------------------1--1--|

Verse : 

G|-------------|
D|-------------|
A|-1--1--1--1--|
E|-------------| x12

Chorus :


G|--------------------------|
D|--------------------------|
A|----------3--1--1---------|
E|-1--3--4-----------4--3---| x3

G|-----------------------------------|
D|-------------3------------3--------|
A|---------------------3-------------|
E|-1--1--1--1------------------1--1--|

Verse : 

G|-------------|
D|-------------|
A|-1--1--1--1--|
E|-------------| x11

G|---------------|
D|---------------|
A|-1--1--1--1/3--|
E|---------------|

Chorus :

G|--------------------------|
D|--------------------------|
A|----------3--1--1---------|
E|-1--3--4-----------4--3---| x3

G|-----------------------------------|
D|-------------3------------3--------|
A|---------------------3-------------|
E|-1--1--1--1------------------1--1--|

Final : 

G|-------------|
D|-------------|
A|-1--1--1--1--|
E|-------------| x7

G|---------------|
D|---------------|
A|-1--1--1--1/3--|
E|---------------|

G|-------------|
D|-------------|
A|-1--1--1--1--|
E|-------------| ( until the end, you can play the slide occasionally :D ) 

Have fun !


| /  slide up
| \  slide down
| h  hammer-on
| p  pull-off
| ~  vibrato
| +  harmonic
| x  Mute note
            
Submit corrections


        Let Em In lessons Hard to play? Try these video lessons and learn fast Let Em In lessons
        
↑ Back to top | Tablatures and chords for acoustic guitar and electric guitar, ukulele, drums are parodies/interpretations of the original songs. You may use it for private study, scholarship, research or language learning purposes only