» » »

Billy Joel - The Stranger Tabs

Artists:  A B C D E F G H I J K L M N O P Q R S T U V W X Y Z # 

The Stranger Tabs

(ver. 1) Click to play this song!
Billy Joel
 Rating:
4/5 (4 votes)

 The Stranger lessons Tabs too difficult? Try these video lessons and learn fast
 
                Billy Joel

The Stranger (Intro)



All Bends are up 1/2 step

Intro : (0:59)

   Em			    C7
Guitar I
e------------------------|----------------------------|
b------------------------|----------------------------|
g----------7vv-----------|-----------9--9---9---7-----|
d--9--7--9-----9--7--9vv-|--8--7--8---------------9vv-|
a------------------------|----------------------------|
e------------------------|----------------------------|
Guitar II
e------------------------|----------------------------|
b----------8vv-----------|----------10b-10b-10--8-----|
g--9--7--9-----9--7--9vv-|--9--7--9---------------9vv-|
d------------------------|----------------------------|
a------------------------|----------------------------|
e------------------------|----------------------------|

   Em			    C7
Guitar I
e------------------------|-----------12--12--10-10------|
b------------------------|-------------------------12vv-|
g----------7vv-----------|------------------------------|
d--9--7--9-----9--7--9vv-|--9--7--9---------------------|
a------------------------|------------------------------|
e------------------------|------------------------------|
Guitar II
e------------------------|-----------17b-17b-17-15------|
b----------8vv-----------|-------------------------17vv-|
g--9--7--9-----9--7--9vv-|--9--7--9---------------------|
d------------------------|------------------------------|
a------------------------|------------------------------|
e------------------------|------------------------------|
            
Submit corrections


        The Stranger lessons Hard to play? Try these video lessons and learn fast The Stranger lessons
        
↑ Back to top | Tablatures and chords for acoustic guitar and electric guitar, ukulele, drums are parodies/interpretations of the original songs. You may use it for private study, scholarship, research or language learning purposes only