Home » B » Billy Joel »

Billy Joel - Piano Man Bass

Artists:  A B C D E F G H I J K L M N O P Q R S T U V W X Y Z # 

Piano Man Bass

(ver. 1) Click to play this song!
Billy Joel
 Rating:
4/5 (4 votes)
                Intro 
|-------5-----|-------------|-------5-----|-------------|
|-------------|-------3-2-0-|-------------|-------3-2-0-|
|-3-----------|-3-----------|-3-----------|-3-----------|
|-------------|-------------|-------------|-------------|


Verse 1 (It's nine o'clock ...)

|-------4-----|-2-----0-----|-------------|-------0-----|
|-------------|-------------|-3-----2-----|-0-----------|
|-3-----------|-------------|-------------|---------0-2-|
|-------------|-------------|-------------|-------------|

|-------------|-------------|-------0-----|-------------|
|-------------|-------------|-------------|-------------|
|-3-----2-----|-0-----------|-------------|-3-----3-----|
|-------------|-------3-----|-1-----------|-------------|

|-------------|-------------|-------0-----|-------------|-------------|
|-------------|-------------|-------------|-----------55|-------------|
|-3-----2-----|-0-----------|-------------|-3-----3-----|-3-----3-----|
|-------------|-------3-----|-1-----------|-------------|-------------|


Verse 2 (He says son can you play ...)

|-------------|-------------|-------------|-------0-2-4-|
|-------------|-------------|-3-----2-----|-0-----------|
|-3-----2-----|-0-------0-2-|-------------|-------------|
|-------------|-------3-----|-------------|-------------|

|-------------|-------------|-------------|-------------|
|-------------|-------------|-------------|-------------|
|-3-----2-----|-0-----------|-------------|-3-----3-----|
|-------------|-------3-----|-1-----3-----|-------------|

Interlude (La la la..)

|-------------|-------------|-------------|-------------|
|---2-----2---|---0---------|---2-----2---|---0---------|
|-0-----------|---------3---|-0-----------|---------3---|
|-------3-----|-2-----1-----|-------3-----|-2-----1-----|

|-0-----------|-------------|
|-------3-----|-2-----0-----|
|-------------|-------------|
|-------------|-------------|


Chorus 1 (Sing us a song ...)

|-------------|-------------|-------------|-------0-----|
|-------------|-------------|-3-----2-----|-0-----------|
|-3-----2-----|-0-----------|-------------|---------0-2-|
|-------------|-------3-----|-------------|-------------|

|-------------|-------------|-------------|-------------|
|-------------|-------------|-------------|-------------|
|-3-----2-----|-0-----------|-------------|-3-----3-----|
|-------------|-------3-----|-1-----3-----|-------------|

|-------------|-------------|-------0-----|
|-------------|-------------|-------------|
|-3-----2-----|-0-----------|-------------|
|-------------|-------3-----|-1-----------|

|-------5-----|-------------|-------5-----|-------------|
|-------------|-------3-2-0-|-------------|-------3-2-0-|
|-3-----------|-3-----------|-3-----------|-3-----------|
|-------------|-------------|-------------|-------------|

Verse 3 (John at the bar ...)

|-------4-----|-2-----0-----|-------------|-------0-2-4-|
|-------------|-------------|-3-----2-----|-0-----------|
|-3-----------|-------------|-------------|-------------|
|-------------|-------------|-------------|-------------|

|-------------|-------------|-------0-----|-------------|-------------|
|-------------|-------------|-------------|-----------55|-------------|
|-3-----2-----|-0-----------|-------------|-3-----3-----|-3-----3-----|
|-------------|-------3-----|-1-----------|-------------|-------------|

Verse 4 (He says Bill ...)

|-------------|-------------|-------------|-------0-2-4-|
|-------------|-------------|-------------|-0-2-3-------|
|-3-----2-----|-0-----------|-------------|-------------|
|-------------|-------3-----|-1-----0-----|-------------|

|-------------|-------------|-------------|-------------|
|-------------|-------------|-------------|-------------|
|-3-----2-----|-0-----------|-------------|-3-----3-----|
|-------------|-------3-----|-1-----3-----|-------------|

Interlude (La la la ..)

|-------------|-------------|-------------|-------------|
|---2-----2---|---0---------|---2-----2---|---0---------|
|-0-----------|---------3-2-|-0-----------|-------------|
|-------3-----|-2-----1-----|-------3-----|-2-----1-0-1-|

|-0-----------|-------------|
|-------3-----|-2-----0-----|
|-------------|-------------|
|-------------|-------------|

Verse 5 (Now Paul is a ...)

|-------------|-------------|-------------|-------------|
|-------------|-----------2-|-3-----2-----|-0-----------|
|-3-----2-----|-0-------3---|-------------|-----------2-|
|-------------|-------3-----|-------------|-------3-----|

|-------------|-------------|-------------|-------------|
|-------------|-------------|-------------|-------------|
|-3-----2-----|-0-----------|-------------|-3-----3-----|
|-------------|-------3-----|-1-----3-----|-------------|

|-------------|-------------|-------------|-------------|-------------|
|-------------|-------------|-3-----------|-----------55|-------------|
|-3-----2-----|-0-----------|-------------|-3-----3-----|-3-----3-----|
|-------------|-------3-----|-------3-----|-------------|-------------|

Verse 6 (And the waitress ...)

|-------------|-------------|-------------|-------0-----|
|-------------|-----------2-|-3-----2-----|-0-----------|
|-3-----2-----|-0-------3---|-------------|-------------|
|-------------|-------3-----|-------------|-------------|

|-------------|-------------|-------------|-------------|
|-------------|-------------|-3-----------|-------------|
|-3-----2-----|-0-----------|-------------|-3-----3-----|
|-------------|-------3-----|-------3-----|-------------|

Piano solo

|-------------|-------------|-------------|-------------|
|---2-----2---|---0---------|---2-----2---|---0---3-----|
|-0-----------|---------3-2-|-0-----------|---------3-2-|
|-------3-----|-2-----1-----|-------3-----|-2-----------|

|-------------|-------------|-0-----------|-------------|
|---2-----2---|---0---------|-------3-----|-2-----0-----|
|-0-----------|---------3---|-------------|-------------|
|-------3-----|-2-----1-----|-------------|-------------|

Chorus 2 (Sing us a song ...)

|-------------|-------------|-------------|-------------|
|-------------|-------------|-------------|-0-----------|
|-3-----2-----|-0-----------|-------------|-------------|
|-------------|-------3-----|-1-----0-----|-------3-----|

|-------------|-------------|-------------|-------------|
|-------------|-----------2-|-3-----------|-------------|
|-3-----2-----|-0-------3---|-------------|-3-----3-----|
|-------------|-------3-----|-------3-----|-------------|

|-------------|-------------|-------------|
|-------------|-------------|-------------|
|-3-----2-----|-0-----------|-------------|
|-------------|-------3-----|-1-----3---3-|

|-------5-----|-------------|-------5-----|-------------|
|-------------|-------3-2-0-|-------------|-------3-2-0-|
|-3-----------|-3-----------|-3-----------|-3-----------|
|-------------|-------------|-------------|-------------|

Verse 7 (It's a pretty good ...)

|-------4-----|-2-----0-----|-------------|---------2-4-|
|-------------|-------------|-3-----2-----|-0---345-----|
|-3-----------|-----------3-|-------------|---35--------|
|-------------|-------------|-------------|-------------|

|-------------|-2-----0-----|-------0-----|-------------|-------------|
|-------------|-------------|-3-----------|-------------|-------------|
|-3-----2-----|-------------|-------------|-3---333---33|-3---333---33|
|-------------|-------------|-------------|-------------|-------------|

Verse 8 (And the piano ...)

|-------------|-------------|-------------|-------0-----|
|-------------|-----------2-|-3-----2-----|-0-----------|
|-3-----2-----|-0-------3---|-------------|-------------|
|-------------|-------3-----|-------------|-------------|

|-------------|-------------|-------------|-------------|
|-------------|-----------2-|-3-----------|-------------|
|-3-----2-----|-0-------3---|-------------|-3-----3-----|
|-------------|-------3-----|-------3-----|-------------|

Interlude (La la la ..)

|-------------|-------------|-------------|-------------|
|---2-----2---|---0---------|---2-----2---|---0---------|
|-0-----------|---------3-2-|-0-----------|-------------|
|-------3-----|-2-----1-----|-------3-----|-2-----1-0-1-|

|-------------|-------------|
|-------3-----|-2-----0-----|
|-------------|-------------|
|-3-----------|-------------|

Chorus 3 (Sing us a song ...)

|-------------|-------------|-------------|-------0-----|
|-------------|-------------|-------------|-0-----------|
|-3-----2-----|-0-----------|-------------|-------------|
|-------------|-------3-----|-1-----0-----|-------------|

|-------------|-------------|-------------|-------------|
|-------------|-------------|-------------|-------------|
|-3-----2-----|-0-----------|-------------|-3-----3-----|
|-------------|-------3-----|-1-----3-----|-------------|

|-------------|-------------|-------------|
|-------------|-------------|-------------|
|-3-----2-----|-0-----------|-------------|
|-------------|-------3-----|-1-----3---3-|

|-------5-----|-------------|-------5-----|-------------|-------------|
|-------------|-------3-2-0-|-------------|-------3-2-0-|-------------|
|-3-----------|-3-----------|-3-----------|-3-----------|-3-----------|
|-------------|-------------|-------------|-------------|-------------|
                                                (rit.)            
Submit corrections

↑ Back to top | Tablatures and chords for acoustic guitar and electric guitar, ukulele, drums are parodies/interpretations of the original songs. You may use it for private study, scholarship, research or language learning purposes only