» » »

Bill Withers - Sweet Wanomi Tabs

Artists:  A B C D E F G H I J K L M N O P Q R S T U V W X Y Z # 

Sweet Wanomi Tabs

(ver. 1) Click to play this song!
Bill Withers
 Rating:
4/5 (4 votes)

 Sweet Wanomi  lessons Tabs too difficult? Try these video lessons and learn fast
 
                It's just E7, A7, D7 sliding back to E7

   E7              A7  D7 E7          E7                   A7   D7 E7
e|---------------------------------------------------------------------------|
B|--9-------------------7/9------------9-------------------------7/9---------|
G|--7---------------6---5/7------------7--------------------6----5/7---------|
D|--9---------------5---7/9------------9--------------------5----7/9---------|
A|--7---------------7---5/7------------7--------------------7----5/7---------|
E|------------------5---------------------------------------5----------------|     
     In a room with soft satin pillows, Cracklin' fireplace keeps us warm

   E7                     A7      D7 E7         
e|---------------------------------------------------------------------------|
B|--9------------------------------7/9---------------------------------------|
G|--7----------------------6-------5/7---------------------------------------|
D|--9----------------------5-------7/9---------------------------------------|
A|--7----------------------7-------5/7---------------------------------------|
E|-------------------------5-------------------------------------------------|
     Whisprin' wind through weepin' willows, 

   E7                       A7  D7 E7    E7              A7  D7 E7
e|---------------------------------------------------------------------------|
B|--9----------------------------7/9------9-------------------7/9------------|
G|--7------------------------6---5/7------7---------------6---5/7------------|
D|--9------------------------5---7/9------9---------------5---7/9------------|
A|--7------------------------7---5/7------7---------------7---5/7------------|
E|---------------------------5----------------------------5------------------|
     And sweet Wanomi restin' in my arms



Keys solo (also played over the riff in the last measures of the song):

e|---------------------------------------------------------------------------|
B|--9--9-9--9-9--9-9--10-9------------9-9---------------------9--------------|
G|-------------------------11-11--9-------11-9-9---------9h11----------------|
D|-----------------------------------------------11-9h11---------------------|
A|---------------------------------------------------------------------------|
E|---------------------------------------------------------------------------|

e|---------------------------------------------------------------------------|
B|--9--9-9--9-9--9-9--10-9------------9-9------------------------------------|
G|-------------------------11-11--9-------11-9-9---------9h11p9--------------|
D|-----------------------------------------------11-9h11---------------------|
A|---------------------------------------------------------------------------|
E|---------------------------------------------------------------------------|            
Submit corrections


        Sweet Wanomi  lessons Hard to play? Try these video lessons and learn fast Sweet Wanomi  lessons
        
↑ Back to top | Tablatures and chords for acoustic guitar and electric guitar, ukulele, drums are parodies/interpretations of the original songs. You may use it for private study, scholarship, research or language learning purposes only