» » »

Bill Haley And The Comets - Rock Around The Clock Tabs

Artists:  A B C D E F G H I J K L M N O P Q R S T U V W X Y Z # 

Rock Around The Clock Tabs

(ver. 1) Click to play this song!
Bill Haley And The Comets
 Rating:
3.4/5 (10 votes)

 Rock Around The Clock lessons Tabs too difficult? Try these video lessons and learn fast
 
                Bill Haley & The Comets
Rock Around the Clock solo

Solo Part 1
E|--------------------------------------|
a|--------------------------------------|
d|--------------------------------------|
g|------------15h17---------------------|
b|------15h17---------------------------|
e|15h16h17------------------------------|

Part Two
E|--------------------------------------|
a|--------------------------------------|
d|--------------------------------------|
g|15h17---------------------------------|
b|--------15h17-------------------------|
e|-------------15h16h17-----------------|

Part 3
E|--------------------------------------|
a|--------------------------------------|
d|--------------------------------------|
g|--------------------------------------|
b|--------------------------------------|
e|-------------15x10h16h17--------------|

Part 4
E|--------------------------------------|
a|--------------------------------------|
d|--------------------------------------|
g|-------------17p15--------------------|
b|--------17p15-------------------------|
e|17p16p15------------------------------|

Part 5
E|--------------------------------------|
a|--------------------------------------|
d|--------------------------------------|
g|--------------------------------------|
b|15x9-h16h17-17p16p15------------------|
e|--------------------17p15-------------|

Key
p = Pull off
h = Hammer on
x* = times number after
            
Submit corrections


        Rock Around The Clock lessons Hard to play? Try these video lessons and learn fast Rock Around The Clock lessons
        
↑ Back to top | Tablatures and chords for acoustic guitar and electric guitar, ukulele, drums are parodies/interpretations of the original songs. You may use it for private study, scholarship, research or language learning purposes only