Home » B » Big Head Todd And The Monsters »

Big Head Todd And The Monsters - Tomorrow Never Comes Bass

Artists:  A B C D E F G H I J K L M N O P Q R S T U V W X Y Z # 

Tomorrow Never Comes Bass

(ver. 2) Click to play this song!
Big Head Todd And The Monsters
Main Riff x 17
*NOTE: Feel free to add some little improvised fillers, just to make the riff alittle 
fun. Thats what the bass player does.*

G:| -------------------------------2------------------ |
D:|*-----------------5---------------------------5----*|
A:|*-------0---------------0---0-----0----------------*|
E:| 1--x-1---3--x-3----3-0-------------0-3--x-3----3-0 |

Bridge x 3
*NOTE: I don't think that this is exactly right, but it sounds pretty close, and it fits 
the rest of the song.

G:| -----7----7--------7---7--------5---5-- |
D:|*5-5-----5------------------------------*|
A:|*------------0-5-5----5---0-3-3----3---0*|
E:| --------------------------------------- |

Main Riff x 12

Outro
G:|--------------------------------|
D:|--------------------------------|
A:|--------0-----------------------|
E:|1-1-X-1---3~(Let ring 'till end)|
            
Submit corrections

↑ Back to top | Tablatures and chords for acoustic guitar and electric guitar, ukulele, drums are parodies/interpretations of the original songs. You may use it for private study, scholarship, research or language learning purposes only