Home » B » Big Head Todd And The Monsters »

Big Head Todd And The Monsters - Strategem Tabs

Artists:  A B C D E F G H I J K L M N O P Q R S T U V W X Y Z # 

Strategem Tabs

(ver. 1) Click to play this song!
Big Head Todd And The Monsters
#------------------------------------------------------------------------------##


Trans by Denny K

                     STRATAGEM
          Big Head Todd and the Monsters
                     Stratagem


------------------------------------;-----------------|
------------------------------------;-----3--3---3----|
-2--2--2------2---------2--2-----2--;-----2--2---2----|
-2------------2---------2--------2--;-----2--2---2----|
-0----------------0h3------------0--;-----0-----------|
----------0h3----------------0h3----;-----------------|


Here's the tricky chorus


--------0h2----2-----------3-----|
-1-0-1--0h3--3-3--1-0-1-0--0-----|
-0-0-0----2--2-2--0-0-0-0--0-----|
-2-0-2----0-------2-0-2-0--0-----|
-3-2-3------------3-2-3-2--2-----|
---------------------------3-----|

----------------------------------2--2--2-2-3-2--2-2-3-2------|
-3-3-3-3-3-3-3-3-3-3-3-3-3-3-3-3--3--3--3-3-3-3--3-3-3-3------|
-0-0-0-0-0-0-0-0-0-0-0-0-0-0-0-0--2--2------2--------2--------|
-0-0-0-0-0-0-0-0-0-0-0-0-0-0-0-0--0--0------------------------|
-3-3-3-2-2-2-0-0-0--------------------------------------------|
-------------------3-3-3-2-2-2-3------------------------------|

---0-------2-----5------7-------|
--------------------------------|
-0-----/2-----/5----/7----------|
--------------------------------|
--------------------------------|
--------------------------------|
Brief, but enlightening solo, then back to intro.
            
Submit corrections

↑ Back to top | Tablatures and chords for acoustic guitar and electric guitar, ukulele, drums are parodies/interpretations of the original songs. You may use it for private study, scholarship, research or language learning purposes only