Home » B » Big Head Todd And The Monsters »

Big Head Todd And The Monsters - Poor Miss Tabs

Artists:  A B C D E F G H I J K L M N O P Q R S T U V W X Y Z # 

Poor Miss Tabs

(ver. 1) Click to play this song!
Big Head Todd And The Monsters
#------------------------------------------------------------------------------##

                                     POOR MISS
                           Big Head Todd and the Monsters
                                   Stratagem (1994)

Trans by Denny Kruep


----------------------------------------------------|
------------------0--------------0------------------|
-1------1h2p1--1--1-------1------1h2p1--1-----1-----|
-2------2------2--2--2-2--2------2------2--2--------|
-2------2-----------------2------2------0--0--------|
-0--0-0-0------2-----2----0--0-0-0------------------|


The above is the introduction and most of the song.  Do a lot of
improvisation on the hammer ons and pull offs.  The most important thing
here is to accentuate the low notes that go E F# E A (even though the
bass uses a slightly different pattern).

And I never know the reasons..........
-3-------------3--0-----0---0-------0--0--0--;---2~~~----0~~~----|
-3-------------3--0-----0---0-------0--0--0--;---4~~~----2~~~----|
-0-------0-----0--0-----1---1----1--2--2--1--;---4~~~----2~~~----|
-0---0---0--0--0--0-----2---2----2--2--2--2--;-------------------|
-2---2---2--2--2--2-----2---2----2--2--2--2--;-------------------|
-3---3---3--3--3--3-----0--------0--0--0--0--;-------------------|


Play the part before the semicolons 3x, then hit the B and A variations.
Use your wammy bar to gently tremolo these chords after the semicolon.

-----------------------------------------------|
-----------------------------------------------|
-4--4---6--6---9--9/12--12---12/13\12----------|
-----------------------------------------------|
-2--2---4--4---7--7/10--10---10/11\10----------|
-----------------------------------------------|


That's somewhat the solo.  Just screw around with the octave formation up
and down the fret board and you'll be able to make it sound correct.


That's the whole song.  Any questions, comments, or requests, just write
            
Submit corrections

↑ Back to top | Tablatures and chords for acoustic guitar and electric guitar, ukulele, drums are parodies/interpretations of the original songs. You may use it for private study, scholarship, research or language learning purposes only