Home » B » Big Head Todd And The Monsters »

Big Head Todd And The Monsters - Broken Hearted Savior Bass

Artists:  A B C D E F G H I J K L M N O P Q R S T U V W X Y Z # 

Broken Hearted Savior Bass

(ver. 3) Click to play this song!
Big Head Todd And The Monsters

BROKEN HEATED SAVIOR (Bassline)
As recorded by Big Head Todd




 

 

Gtr I (E A D G) - 'Staff'


  Q=76
 4/4
  Gtr I
  Q  E S S S S E S S E   Q  E S S S S E E E   Q  E S S S S E S S E
|----------------------|--------------------|----------------------|
|----------------------|--------------------|----------------------|
|----------------------|-3------3---3-3-1-1-|----------------------|
|-3----0-3---3-3-3-4-5-|------3-------------|-3----0-3---3-3-3-4-5-|


  Q  E S S S S E S S E   Q  E S S S S E S S E   E E E S S E E E E
|----------------------|----------------------|-------------------|
|----------------------|--------------5-------|-------------------|
|-3------3---3-3-1-2---|------5-------------0-|-3-3-----3---3-1-1-|
|------3-------------0-|-3------3---3---3-----|-------3-----------|


  Q  E S S S S E S S E   Q  E S S S S E S S S S   Q  E S S S S E S S E
|----------------------|------------------------|-----------------------|
|----------------------|----------------3---3---|--------------5--------|
|--------------------0-|-3------3---3-3---------|------5-------------0--|
|-3----0-3---0-3-3-0---|------3-----------------|-3------3---3---3------|


  E E E S S E E E E   Q  E S S S S E S S E   Q  E S S S S E S S S S
|-------------------|----------------------|-------------------------|
|-------------------|----------------------|----------------3---3----|
|-3-3-----3---3-1-1-|--------------------0-|-3------3---3-3----------|
|-------3-----------|-3----0-3---0-3-3-0---|------3------------------|


  Q  E S S S S E S S E   Q  E S S S S E E E   Q  E S S S S E S S E
|----------------------|--------------------|-----------------------|
|----------------------|--------------------|-----------------------|
|----------------------|-3------3---3-3-1-1-|-----------------------|
|-3----0-3---3-3-3-4-5-|------3-------------|-3----0-3---3-3-3-4-5--|


  Q  E S S S S S S S S E   Q  Q  S E S +S  S E   Q  Q  S E S +S  S E
|------------------------|---------------------|----------------------|
|------------------2-----|---------------------|----------------------|
|-3------3---3-2-3---0-3-|-5--5--5-5-5-(5)-5---|-3--3--3-3-3-(3)-3-0--|
|------3-----------------|-------------------5-|----------------------|


  Q  Q  S E S +S  S E   Q  Q  S E S +S  S E   Q  Q  S E S +S  S E
|---------------------|---------------------|---------------------|
|---------------------|---------------------|---------------------|
|-5--5--5-5-5-(5)-5---|-3--3--3-3-3-(3)-3-0-|-5--5--5-5-5-(5)-5---|
|-------------------5-|---------------------|-------------------5-|


  Q  Q  S E S +S  S E   H    +Q.   E   Q  E S S S S E S S E
|---------------------|--------------|-----------------------|
|---------------------|--------------|-----------------------|
|-3--3--3-3-3-(3)-3-0-|-3----(3)-----|-----------------------|
|---------------------|------------0-|-3----0-3---3-3-3-4-5--|


  Q  E S S S S E E E   Q  E S S S S E S S E   Q  E S S S S E S S E
|--------------------|----------------------|-----------------------|
|--------------------|----------------------|-----------------------|
|-3------3---3-3-1-1-|----------------------|-3------3---3-3-1-2----|
|------3-------------|-3----0-3---3-3-3-4-5-|------3-------------0--|


  Q  E S S S S E S S E   E E E S S E E E E   Q  E S S S S E S S E
|----------------------|-------------------|----------------------|
|--------------5-------|-------------------|----------------------|
|------5-------------0-|-3-3-----3---3-1-1-|--------------------0-|
|-3------3---3---3-----|-------3-----------|-3----0-3---0-3-3-0---|


  Q  E S S S S E S S S S   Q  E S S S S E S S E   E E E S S E E E E
|------------------------|----------------------|--------------------|
|----------------3---3---|--------------5-------|--------------------|
|-3------3---3-3---------|------5-------------0-|-3-3-----3---3-1-1--|
|------3-----------------|-3------3---3---3-----|-------3------------|


  Q  E S S S S E S S E   Q  E S S S S E S S S S   Q  E S S S S E S S E
|----------------------|------------------------|-----------------------|
|----------------------|----------------3---3---|-----------------------|
|--------------------0-|-3------3---3-3---------|-----------------------|
|-3----0-3---0-3-3-0---|------3-----------------|-3----0-3---3-3-3-4-5--|


  Q  E S S S S E E E   Q  E S S S S E S S E   Q  E S S S S S S S S E
|--------------------|----------------------|------------------------|
|--------------------|----------------------|------------------2-----|
|-3------3---3-3-1-1-|----------------------|-3------3---3-2-3---0-3-|
|------3-------------|-3----0-3---3-3-3-4-5-|------3-----------------|


  Q  Q  S E S +S  S E   Q  Q  S E S +S  S E   Q  Q  S E S +S  S E
|---------------------|---------------------|---------------------|
|---------------------|---------------------|---------------------|
|-5--5--5-5-5-(5)-5---|-3--3--3-3-3-(3)-3-0-|-5--5--5-5-5-(5)-5---|
|-------------------5-|---------------------|-------------------5-|


  Q  Q  S E S +S  S E   Q  Q  S E S +S  S E   Q  Q  S E S +S  S E
|---------------------|---------------------|---------------------|
|---------------------|---------------------|---------------------|
|-3--3--3-3-3-(3)-3-0-|-5--5--5-5-5-(5)-5---|-3--3--3-3-3-(3)-3-0-|
|---------------------|-------------------5-|---------------------|


  H    +Q.   E   Q  E S S S S E S S E   Q  E S S S S E E E
|--------------|----------------------|---------------------|
|--------------|----------------------|---------------------|
|-3----(3)-----|----------------------|-3------3---3-3-1-1--|
|------------0-|-3----0-3---3-3-3-4-5-|------3--------------|


  Q  E S S S S E S S E   Q  E S S S S E S S E   Q  E S S S S E S S E
|----------------------|----------------------|----------------------|
|----------------------|----------------------|----------------------|
|----------------------|-3------3---3-3-1-2---|----------------------|
|-3----0-3---3-3-3-4-5-|------3-------------0-|-3----0-3---3-3-3-4-5-|


  Q  E S S +S  S E E E   Q  E S S S S E S S E   Q  S S S S S S E S S E
|----------------------|----------------------|------------------------|
|------------------3-3-|----------------------|----------------------2-|
|-3----3-3-(3)-3-3-----|----------------------|-3----------------------|
|----------------------|-3----0-3---3-3-3-4-5-|----0-0-0-1-1-1-2-2-3---|


  Q  E S S S S E S S E   Q  E S S +S  S E E E   Q  E S S S S E E E
|----------------------|----------------------|--------------------|
|----------------------|------------------3-3-|-5------5---5-5-----|
|----------------------|-3------3-(3)-3-3-----|------5-------------|
|-3----0-3---3-3-3-4-5-|------3---------------|----------------6-6-|


  Q  Q  S S E S S S S    E  E S  S  S  S  S  S  E  S S  E
|---------------------|-----------------------------------|
|---------------------|-------9---------------------------|
|---------8-9-9-9-8-9-|-10-10---10-10-10-10-10-10-10-9----|
|-8-------------------|--------------------------------10-|


  E E  S E S +S  S S S S S S S
|-------------------------------|
|-------------------------------|
|-----10---------------7--------|
|-8-8----8-8-(8)-8-7-8---8-8-0--|


  E S S S S S S +S  S S S S S S S   E S S S S S S +S  S S S E E
|---------------------------------|-----------------------------|
|---------------------------------|-------------------------3-3-|
|-------2-3-5---------2---2-3-5---|-3-----3-3---3-(3)-3-3-3-----|
|-3-3-3-------3-(3)-3---3-------3-|-----3-----------------------|


  Q  E. S S S S S S S S S   E S S S S S S S S S S S S S S
|-------------------------|-------------------------------|
|-------------------------|-----------------------1---3---|
|-----------------1-3-1---|-3-3-2-3-3-2-3-3-2-3-3---3---0-|
|-3--3--2-3-2-3-3-------3-|-------------------------------|


  E S S S S S S +S  S S S S S S S   E S S S S S S +S  S S S E E
|---------------------------------|-----------------------------|
|---------------------------------|-------------------------3-2-|
|-------2-3-5---------2---2-3-5---|-3-----3-3---3-(3)-3-3-3-----|
|-3-3-3-------3-(3)-3---3-------3-|-----3-----------------------|


  Q  E S S S S E S S E   Q  E S S S S E E E   Q  E S S S S E S S E
|----------------------|--------------------|-----------------------|
|----------------------|--------------------|-----------------------|
|----------------------|-3------3---3-3-1-1-|-----------------------|
|-3----0-3---3-3-3-4-5-|------3-------------|-3----0-3---3-3-3-4-5--|


  Q  E S S S S E E E   Q  E S S S S E S S E   Q  E S S S S E E E
|--------------------|----------------------|--------------------|
|--------------------|----------------------|--------------------|
|-3------3---3-3-1-1-|----------------------|-3------3---3-3-1-1-|
|------3-------------|-3----0-3---3-3-3-4-5-|------3-------------|


  Q  E S S S S E S S E   Q  E S S S S E E E   W          +W
|----------------------|--------------------|----------|--------|
|----------------------|--------------------|----------|--------|
|----------------------|-3------3---3-3-1-1-|----------|--------|
|-3----0-3---3-3-3-4-5-|------3-------------|-3--------|-(3)----|


  +W           +H     +H
|------------|---------------*|
|------------|---------------*|
|------------|---------------*|
|-(3)--------|-(3)----(3)----*|




--------------------------------------------------------------------------------


Duration Legend
---------------
W - whole; H - half; Q - quarter; E - 8th; S - 16th; T - 32nd; X - 64th; a - acciaccatura
+ - note tied to previous; . - note dotted; .. - note double dotted
Uncapitalized letters represent notes that are staccato (1/2 duration)
Irregular groupings are notated above the duration line
Duration letters will always appear directly above the note/fret number it represents the
duration for.  Duration letters with no fret number below them represent rests.  Multi-
bar rests are notated in the form Wxn, where n is the number of bars to rest for.  Low
melody durations appear below the staff

Tablature Legend
----------------
 h   - hammer-on
 p   - pull-off
 b   - bend
 pb  - pre-bend
 r   - bend release (if no number after the r, then release immediately)
 /\  - slide into or out of (from/to "nowhere")
 s   - legato slide
 S   - shift slide
 - natural harmonic
[n]  - artificial harmonic
n(n) - tapped harmonic
 ~   - vibrato
 tr  - trill
 T   - tap
 TP  - trem. picking
 PM  - palm muting
\n/  - tremolo bar dip; n = amount to dip
 \n  - tremolo bar down
 n/  - tremolo bar up
/n\  - tremolo bar inverted dip
 =   - hold bend; also acts as connecting device for hammers/pulls
 <> - volume swell (louder/softer)
 x   - on rhythm slash represents muted slash
 o   - on rhythm slash represents single note slash

Misc Legend
-----------
 |  - bar
||  - double bar
||o - repeat start
o|| - repeat end
*|  - double bar (ending)
 :  - bar (freetime)
 $  - Segno
 &  - Coda
Tempo markers -  = BPM(8/16=s8/s16), where s8 = swing 8ths, s16 = swing 16ths



--------------------------------------------------------------------------------
            
Submit corrections

↑ Back to top | Tablatures and chords for acoustic guitar and electric guitar, ukulele, drums are parodies/interpretations of the original songs. You may use it for private study, scholarship, research or language learning purposes only