Home » B » Big Head Todd And The Monsters »

Big Head Todd And The Monsters - Bittersweet Chords

Artists:  A B C D E F G H I J K L M N O P Q R S T U V W X Y Z # 

Bittersweet Chords

(ver. 1) Click to play this song!
Big Head Todd And The Monsters
Chords

     G    D   Dsus2   Am   C 
e:---3----2-----0-----0---------:
B:---0----3-----3-----1----1----:
G:---0----2-----2-----2----0----:
D:---0----0-----0-----2----2----:
A:---2----------------0----3----:
E:---3-------------------- -----:

(Dsus4 xx0233 can be played instead of dsus2 if you prefer.)

Strumming pattern guideline
  G                       D
e:----3-----3-----3-----2:----2--x--x--0-h2--x--x:     ^ = up strum
B:----0-----0-----0-----3:----3--x--x--3--3--x--x:     v = down strum
G:----0-----0-----0-----2:----2--x--x--2--2--x--x:     h = hammer on
D:-----------------------:-----------------------:
A:-----------------------:-----------------------:
E:-3---------------------:-----------------------:
   v  ^     ^     ^     ^     ^  v  ^  v     v  ^  
   1 and 2 and 3 and 4 and 1 and 2 and 3 and 4 and

  Am                      C
e:-----------------------:------------------------:
B:----1--x--x--0-h1------:--------1---------------:
G:----2--x--x--0-h2-0----:-----0-----0h2-0--------:
D:----2--x--x--0-h2---2--:--2---------------0h2-0-:
A:-0--------------------3:------------------------:
E:-----------------------:------------------------:
   v  ^  v  ^  v                
   1 and 2 and 3 and 4 and 1 and 2 and 3 and 4 and


1st Verse

G          D                  Am    C
  A little light looks through  her bedroom window
G     D                 Am             C 
  She dances and I dream  she's not so far as she seems
G             D            Am  
  Of brighter meadows and  melting sunsets
        C
  Her hair blowing in the breeze
G     D            Am       C
  She can't see me watching
                 G  D  Am   C         G  D  Am   C
  I'm thinking  lalala lalalalala    lalala lalalalala


Chorus

G      D                 Am               C
  It's bittersweet, more sweet than bitter, bitter than sweet
G        D             Am         C
  It's a bittersweet,  surrender
G      D                 Am               C 
  It's bittersweet, more sweet than bitter, bitter than sweet 
G        D             Am         C
  It's a bittersweet,  surrender


Bridge

e:-------------------5---:-----------------------:
B:-------------------3---:-----------------------:
G:---------0---------0---:-----------------------:
D:------------0------0---:-----------------------:
A:------4--------4---4---:-----------------------:
E:-3h5---------------5---:-------------5-----7---:
                     v
   1 and 2 and 3 and 4 and 1 and 2 and 3 and 4 and

e:-------------------8---:-----------------------:
B:-------------------6---:-----------------------:
G:----------0--------0---:-----------------------:
D:-------------0-----0---:-----------------------:
A:-------7--------7--7---:-----------------------:
E:--8----------------8---:-----------------------:
                     v
   1 and 2 and 3 and 4 and 1 and 2 and 3 and 4 and


2nd Verse

G          D                  Am    C
 I said I'm older now  I work in the city  we live together
G     D                 Am             C
 But it's different than my dream
G             D                 Am 
 Morning light fills the room,  I rise
         C
 She pretends she's sleeping
G     D            Am       C
 Are we everything we wanted
                 G  D  Am   C         G  D  Am   C
  I'm thinking  lalala lalalalala    lalala lalalalala


Chorus

G      D                 Am               C
  It's bittersweet, more sweet than bitter, bitter than sweet
G        D             Am         C
  It's a bittersweet,  surrender
G      D                 Am               C 
  It's bittersweet, more sweet than bitter, bitter than sweet 
G        D             Am         C
  It's a bittersweet,  surrender  


3rd Verse

G          D                  Am    
  I said I know we don't talk about it
         C            
  We don't tell each other,
G          D                  Am    C
  all the little things that we need
G     D                 Am             C 
  We work our way around each other
G     D                 Am             C
  As we tremble and we   as we tremble and we bleed
G     D                 Am             C
  As we tremble and we   as we tremble and we bleed


Chorus

G      D                 Am               C
  It's bittersweet, more sweet than bitter, bitter than sweet
G        D             Am         C
  It's a bittersweet,  surrender
G      D                 Am               C 
  It's bittersweet, more sweet than bitter, bitter than sweet 
G        D             Am         C
  It's a bittersweet,  surrender  
            
Submit corrections

↑ Back to top | Tablatures and chords for acoustic guitar and electric guitar, ukulele, drums are parodies/interpretations of the original songs. You may use it for private study, scholarship, research or language learning purposes only