» » »

Biffy Clyro - Wolves Of Winter Bass

Artists:  A B C D E F G H I J K L M N O P Q R S T U V W X Y Z # 

Wolves Of Winter Bass

(ver. 1) Click to play this song!
Biffy Clyro
 Rating:
4.3/5 (16 votes)

 Wolves Of Winter  lessons Tabs too difficult? Try these video lessons and learn fast
 
                [Intro] 

No bass until after "We are the wolves!" at 0:37

G|-----------------------------|
D|-----10-10-10-10-10-10-10-10-| x4
A|-----------------------------|
E|-8-8-------------------------|

G|---------------------|
D|-----8-8-8-8-8-8-8-8-| x2
A|---------------------|
E|-8-8-----------------|

G|---------------------------------9-9-9-9-9-9-9-9-|
D|-----12-12-12-12-12-12-12-12---------------------|
A|-------------------------------------------------|
E|-8-8-------------------------8-8-----------------|


[Verse]

"How's it gonna feel when there's no one to support ya?"

G|--------------------------------------------------------------------|
D|----------------------10-10-10-10-10-10-10-10-----10-10-10-10-10-10-|
A|--------------------------------------------------------------------|
E|-8-8--------------8-8-------------------------8-8-------------------|

"How's it gonna feel when you're standing there alone?"

G|------------------------------------------------------------------------|
D|------------------------10-10-10-10-10-10-10-10-------10-10-10-10-10-10-|
A|------------------------------------------------------------------------|
E|-13-13------------11-11-------------------------10-10-------------------|

"You are no exception... There are no reruns..."

G|----------------------------------|
D|----------------------------------|
A|----------------------------------|
E|-8-8--------8-8----8-8--------8-8-|

"Justify your reasons... Now it is my turn..."

G|----------------------------------|
D|----------------------------------|
A|-8-8--------8-8----6-6--------5-5-|
E|----------------------------------|


[Pre-Chorus]

"Your fits of paranoia, drive your every whim"

G|----------------------------------------|
D|----------------------------------------|
A|----------------------------------------|
E|-4-4--4----4-4-4-4----1-1--1----1-1-1-1-|

"Well have you seen her? This unbearable creature"

G|----------------------------------------|
D|----------------------------------------|
A|-3-3--3----3-3-3-3----------------------|
E|----------------------5-5--5----5-5-5-5-|

"This is the point, we have the choice to be happy together"

G|----------------------------------------|
D|----------------------------------------|
A|----------------------------------------|
E|-4-4--4----4-4-4-4----3-3--3----3-3-3-3-|


[Chorus]

"We have achieved so much more than you possibly thought we could... well now you see me!"

"We can achieve anything, just remember, no 'I' in team... there's two in brilliant!"

"We are the wolves of winter!"

"We live in a kingdom of blood!"

G|-------------------------------------|
D|-------------------------------------| x4
A|-------7--7--8--8--11-11-11-11-10-10-|
E|-8--8--------------------------------|


[Interlude] 

no bass


[Verse]

"When you gonna rise, seek a man you can dispose of?"

G|--------------------|
D|--------------------|
A|--------------------|
E|-8-8------------8-8-|

"When you gonna try and boil my last bone?"

G|--------------------|
D|--------------------|
A|-8-8------------6-6-|
E|--------------------|

"This is true obsession... Take me and my worth..."

G|----------------------------------|
D|----------------------------------|
A|----------------------------------|
E|-8-8--------8-8----8-8--------8-8-|

"Subtle as a steam burn... More than just a scald..."

G|----------------------------------|
D|----------------------------------|
A|-8-8--------8-8----6-6--------5-5-|
E|----------------------------------|


[Pre-Chorus]

"You stink of hallelujah, but you wash yourself in sin"

G|----------------------------------------|
D|----------------------------------------|
A|----------------------------------------|
E|-4-4--4----4-4-4-4----1-1--1----1-1-1-1-|

"Well have you seen her? This heavenly creature"

G|----------------------------------------|
D|----------------------------------------|
A|-3-3--3----3-3-3-3----------------------|
E|----------------------5-5--5----5-5-5-5-|

"This is the point, we have the choice to survive the winter"

G|----------------------------------------|
D|----------------------------------------|
A|----------------------------------------|
E|-4-4--4----4-4-4-4----3-3--3----3-3-3-3-|


[Chorus]

"We have achieved so much more than you possibly thought we could... well now you see me!"

"We can achieve anything, just remember, no 'I' in team... there's two in brilliant!"

"We are the wolves of winter!"

"We live in a kingdom of blood!"

G|-------------------------------------|
D|-------------------------------------| x4
A|-------7--7--8--8--11-11-11-11-10-10-|
E|-8--8--------------------------------|


[Solo]

G|-----------------------------------------------------|
D|-----------------------------------------------------|
A|--------------8----8-8-8-8---------------------------|
E|-8----8-8-8-8--------------6----6-6-6-6-8----8-8-8-8-|

G|-----------------------------------------------------|
D|-----------------------------------------------------|
A|--------------8----8-8-8-8---------------------------|
E|-8----8-8-8-8--------------6----6-6-6-6-4----4-4-4-4-|


[Outro]

"We are the wolves of winter!"

G|--------------------------------------------------------------------|
D|----------------10-10-10-10-10-10-10-10-----10-10-10-10-10-10-10-10-|
A|-----7-7----8-8-------------------------8-8-------------------------|
E|-8-8----------------------------------------------------------------|

"We live in a kingdom of blood!"

G|--------------------------------------------------------------------|
D|----------------10-10-10-10-10-10-10-10-----10-10-10-10-10-10-10-10-|
A|-----7-7----8-8-------------------------8-8-------------------------|
E|-8-8----------------------------------------------------------------|

G|---------------------------------------------------|
D|-----10-10-10-10-10-10-10-10-----10-10-10-10-10-10-|
A|---------------------------------------------------|
E|-8-8-------------------------8-8-------------------|

G|---------------------------------------------------|
D|-----10-10-10-10-10-10-10-10-----10-10-10-10-10-10-|
A|---------------------------------------------------|
E|-8-8-------------------------8-8-------------------|

G|----------------------------------------------|
D|----------------------------------------------|
A|----------------------------------------------|
E|-8-8--------8-8------8-8---------8-8------8-8-|
            
Submit corrections


        Wolves Of Winter  lessons Hard to play? Try these video lessons and learn fast Wolves Of Winter  lessons
        
↑ Back to top | Tablatures and chords for acoustic guitar and electric guitar, ukulele, drums are parodies/interpretations of the original songs. You may use it for private study, scholarship, research or language learning purposes only