Home » B » Biffy Clyro »

Biffy Clyro - On A Bang Tabs

Artists:  A B C D E F G H I J K L M N O P Q R S T U V W X Y Z # 

On A Bang Tabs

(ver. 1) Click to play this song!
Biffy Clyro
[Intro]

D|---------------------------------------------------------------------------------|
A|---------------------------------------------------------------------------------|
F|---------------------------------------------------------------------------------|
C|------------------5-7------------------------------------------------------------|
G|-----5----------0-3-5--------------5---------------------------------0-0-0-0-0-0-|
C|-8\3-5--------------0----------8\3-5-------8-10-7-------10-11-12----\0-0-0-0-0-0-|


[Verse] 

Guitar 1:
D|-------------------------------------------------------------------------0-|
A|-1-1----1-1-1----1-1----1-1-1----3-------5-5----5-5-5----5-5----5-5-5----6-|
F|-2-2----2-2-2----2-2----2-2-2----3-------5-5----5-5-5----5-5----5-5-5----7-|
C|-2-2----2-2-2----2-2----2-2-2----3-------5-5----5-5-5----5-5----5-5-5----7-|
G|-0-0----0-0-0----0-0----0-0-0----1-------3-3----3-3-3----3-3----3-3-3----5-|
C|---------------------------------------------------------------------------|

D|---------------------------------------------------------------------------|
A|-1-1----1-1-1----1-1----1-1-1----3-------6-6----6-6-6----6-6----6-6-6----5-|
F|-2-2----2-2-2----2-2----2-2-2----0-------7-7----7-7-7----7-7----7-7-7----5-|
C|-2-2----2-2-2----2-2----2-2-2----0-------7-7----7-7-7----7-7----7-7-7----5-|
G|-0-0----0-0-0----0-0----0-0-0------------5-5----5-5-5----5-5----5-5-5----3-|
C|---------------------------------5-----------------------------------------|

D|--------|
A|--------|
F|-9b10-9-|
C|--------|
G|-7b8--7-|
C|--------|


[Verse]

Guitar 2:
D|-------------------------------------------------------------------------|
A|-------------------------------------------------------------------------|
F|-14t------15-------17t------19-------14t------12-------19t------21-------|
C|-------------------------------------------------------------------------|
G|-12t------13-------15t------17-------12t------10-------17t------19-------|
C|-------------------------------------------------------------------------|


[Chorus]

(listen for rhythm):
D|-0--------0--0--0--0--------0--0--|
A|-10-------10-10-10-10-------10-10-|
F|-7--------7--7--7--7--------7--7--|
C|-0--------------0--0--------0-----|
G|-0--------10-8-----------------10-|
C|-0--------------10-8--------10----|

D|-0--------0--0--0--0--------0-----|
A|-10-------10-10-10-10-------10----|
F|-7--------7--7--7--7--------7-----|
C|-0--------------0--0--------0-----|
G|-0--------10-8------------------0-|
C|-0--------------10-8--------10--0-|


[Bridge]

D|--------------------------------|
A|--------------------------------|
F|--------------------------------|
C|--------------------------------|   
G|-8-3-5----5-5----5-5-5----5-5-5-|
C|-8\3-5----5-5----5-5-5----5-5-5-|

D|--------------------------------|
A|--------------------------------|
F|--------------------------------|
C|---5-7----7-7----7-7-7----7-7-7-|
G|-0-3-5----5-5----5-5-5----5-5-5-|
C|-----0----0-0----0-0-0----0-0-0-|(x2)

D|--------------------------------|
A|--------------------------------|
F|--------------------------------|
C|--------------------------------|  
G|-8-3-5----5-5----5-5-5----5-5-5-|
C|-8\3-5----5-5----5-5-5----5-5-5-|

D|---------------------------------|
A|---------------------------------|
F|---------------------------------|
C|---------------------------------|   
G|-8-10-7----7-7----7-7-7----7-7-7-|
C|-8-10-7----7-7----7-7-7----7-7-7-|

D|--------------------------------|
A|----------3-3----3-3-3----3-3-3-|
F|----------2-2----2-2-2----2-2-2-|
C|-5-6-7----0-0----0-0-0----0-0-0-|    
G|-3-4-5----0-0----0-0-0----0-0-0-|
C|-----0----0-0----0-0-0----0-0-0-|(x2)


[Verse] 

Guitar 1:
D|---------------------------------------------------------------------|
A|-1-1----1-1-1----1-1----1-1-1----3----3-3----3-3-3----3-3-3----3-3-3-|
F|-2-2----2-2-2----2-2----2-2-2----3----3-3----3-3-3----3-3-3----3-3-3-|
C|-2-2----2-2-2----2-2----2-2-2----3----3-3----3-3-3----3-3-3----3-3-3-|
G|-0-0----0-0-0----0-0----0-0-0----1----1-1----1-1-1----1-1-1----1-1-1-|
C|---------------------------------------------------------------------|

D|---------------------------------0----0-0----0-0-0----0-0-0----0-0-0-|
A|-5-5----5-5-5----5-5----5-5-5----6----6-6----6-6-6----6-6-6----6-6-6-|
F|-5-5----5-5-5----5-5----5-5-5----7----7-7----7-7-7----7-7-7----7-7-7-|
C|-5-5----5-5-5----5-5----5-5-5----7----7-7----7-7-7----7-7-7----7-7-7-|
G|-3-3----3-3-3----3-3----3-3-3----5----5-5----5-5-5----5-5-5----5-5-5-|
C|---------------------------------------------------------------------|

D|---------------------------------------------------------------------|
A|-1-1----1-1-1----1-1----1-1-1----3----3-3----3-3-3----3-3-3----3-3-3-|
F|-2-2----2-2-2----2-2----2-2-2----0----0-0----0-0-0----0-0-0----0-0-0-|
C|-2-2----2-2-2----2-2----2-2-2----0----0-0----0-0-0----0-0-0----0-0-0-|
G|-0-0----0-0-0----0-0----0-0-0----------------------------------------|
C|---------------------------------5----5-5----5-5-5----5-5-5----5-5-5-|

D|----------------------------------------------------|
A|-6-6----6-6-6----6-6----6-6-6----5----5-5-5-5-5-5-5-|
F|-7-7----7-7-7----7-7----7-7-7----5----5-5-5-5-5-5-5-|
C|-7-7----7-7-7----7-7----7-7-7----5----5-5-5-5-5-5-5-|
G|-5-5----5-5-5----5-5----5-5-5----3----3-3-3-3-3-3-3-|
C|----------------------------------------------------|


[Verse] 

Guitar 2:
D|-------------------------------------------------------------------------|
A|-------------------------------------------------------------------------|
F|-14t------15-15-15-17t------19-19-19-14t------12-12-12-19t------21t------|
C|-------------------------------------------------------------------------|
G|-12t------13-13-13-15t------17-17-17-12t------10-10-10-17t------19t------|
C|-------------------------------------------------------------------------|

D|----------|
A|----------|
F|-21b22-21-|
C|----------|
G|-19b20-19-|
C|----------|


[Chorus]

(listen for rhythm):
D|-0--------0--0--0--0--------0--0--|
A|-10-------10-10-10-10-------10-10-|
F|-7--------7--7--7--7--------7--7--|
C|-0--------------0--0--------0-----|    
G|-0--------10-8-----------------10-|
C|-0--------------10-8--------10----|(x2)

D|-0--------0--0--0-- -0------0--0--|
A|-10-------10-10-10- -10-----10-10-|
F|-7--------7--7--7-- -7------7--7--|
C|-0--------------0-- -0------0-----|
G|-0--------10-8----- -----------10-|
C|-0--------------10- -8------10----|

D|-0--------0--0--0--0--------0--0--|
A|-10-------10-10-10-10-------10-10-|
F|-7--------7--7--7--7--------7--7--|
C|-0--------------0--0--------0-----|   
G|-0--------10-8-----------------10-|
C|-0--------------10-8--------10----|


[End]

D|-0-------|
A|-10------|
F|-7-------|
C|-0-----1-|
G|-0-----1-|
C|-0-----1-|            
Submit corrections

↑ Back to top | Tablatures and chords for acoustic guitar and electric guitar, ukulele, drums are parodies/interpretations of the original songs. You may use it for private study, scholarship, research or language learning purposes only