» » »

Biffy Clyro - Friends And Enemies Tabs

Artists:  A B C D E F G H I J K L M N O P Q R S T U V W X Y Z # 

Friends And Enemies Tabs

(ver. 1) Click to play this song!
Biffy Clyro
 Rating:
4.4/5 (8 votes)

 Friends And Enemies  lessons Tabs too difficult? Try these video lessons and learn fast
 
                Album: Ellipsis
Tuning: CGCFGC


[Intro/Verse 1]

C|---------------------------------|
G|---------------------------------|
F|-7-7-7-7-7-7-7-7-7-7-7-7-7-7-7-7-|
C|---------------------------------|   
G|---------------------------------|
C|---------------------------------|(x3)

C|---------------------------------|
G|---------------------------------|
F|-6-6-6-6-6-6-6-6-6-6-6-6-6-6-6-6-|
C|---------------------------------|
G|---------------------------------|
C|---------------------------------|

C|---------------------------------|
G|---------------------------------|
F|-7-7-7-7-7-7-7-7-7-7-7-7-7-7-7-7-|
C|---------------------------------|
G|---------------------------------|
C|---------------------------------|(x7)

C|---------------------------------|
G|---------------------------------|
F|-6-6-6-6-6-6-6-6-6-6-6-6-6-6-6-6-|
C|---------------------------------|
G|---------------------------------|
C|---------------------------------|

C|---------------------------------|
G|---------------------------------|
F|-7-7-7-7-7-7-7-7-7-7-7-7-7-7-7-7-|
C|---------------------------------|
G|---------------------------------|
C|---------------------------------|(x4)

[Pre-Chorus]

Guitar 1:

C|-0-------0-------0----------|
G|-9-------9-------0------*12-|
F|-0-------7-------0------*12-|
C|-9-------0-------0------*12-|
G|-7--------------------------|
C|---------9-------5----------|(x2)

Guitar 2:

C|---------------------------------------------------------------------|
G|---------------------------------------------------------------------|
F|-----7-----9-----7-----9-----7v--------0-----0-----0-----0-----0v----|
C|-7h9---7h9---7h9---7h9---7h9-------7h9---7h9---7h9---7h9---7h9-------|
G|---------------------------------------------------------------------|
C|---------------------------------------------------------------------|

C|-----------------------------------------------------------|
G|-------------7h9---7h9---7h9-------9h10---9h10---10/12v----|
F|-7h9---7h9-------------------------------------------------|
C|-----7-----7-----7-----7-----7v---------7------7-----------|
G|-----------------------------------------------------------|
C|-----------------------------------------------------------|


[Chorus]

C|-0----0----0-------0----0----0-0-------0----0----0-------0----0----0-0----|
G|-0----0----0-------0----0----0-0-------0----0----0-------0----0----0-0----|
F|-2----2----2-------2----2----2-2-------0----0----0-------0----0----0-0----|
C|-0----0----0-------0----0----0-0-------0----0----0-------0----0----0-0----|
G|-0----0----0-------0----0----0-0------------------------------------------|
C|-0----0----0-------0----0----0-0-------5----5----5-------5----5----5-5----|

C|-------------------------------------------0-----0-----0--------0--|
G|-10----10----10-------10----10----10-10----10----10----10-------10-|
F|-9-----9-----9--------9-----9-----9--9-----11----11----11-------11-|
C|-11----11----11-------11----11----11-11----9-----9-----9--------9--|
G|-0-----0-----0--------0-----0-----0--0-----9-----9-----9--------9--|
C|-------------------------------------------9-----9-----9--------9--|


[Interlude]

C|------------------|
G|------------------|
F|-7----6----2----4-|
C|-0----0----0----0-|
G|------------------|
C|-9----7----4----5-|


[Verse]

C|---------------------------------|
G|---------------------------------|
F|-7-7-7-7-7-7-7-7-7-7-7-7-7-7-7-7-|
C|---------------------------------|  
G|---------------------------------|
C|---------------------------------|(x3)

C|---------------------------------|
G|---------------------------------|
F|-6-6-6-6-6-6-6-6-6-6-6-6-6-6-6-6-|
C|---------------------------------|
G|---------------------------------|
C|---------------------------------|

C|---------------------------------|
G|---------------------------------|
F|-7-7-7-7-7-7-7-7-7-7-7-7-7-7-7-7-|
C|---------------------------------|    
G|---------------------------------|
C|---------------------------------|(x7)

C|---------------------------------|
G|---------------------------------|
F|-6-6-6-6-6-6-6-6-6-6-6-6-6-6-6-6-|
C|---------------------------------|
G|---------------------------------|
C|---------------------------------|

C|---------------------------------|
G|---------------------------------|
F|-7-7-7-7-7-7-7-7-7-7-7-7-7-7-7-7-|
C|---------------------------------|   
G|---------------------------------|
C|---------------------------------|(x4)


[Pre-Chorus]

Guitar 1:

C|-0-------0-------0----------|
G|-9-------9-------0------*12-|
F|-0-------7-------0------*12-|
C|-9-------0-------0------*12-| 
G|-7--------------------------|
C|---------9-------5----------|(x2)

Guitar 2:

C|---------------------------------------------------------------------|
G|---------------------------------------------------------------------|
F|-----7-----9-----7-----9-----7v--------0-----0-----0-----0-----0v----|
C|-7h9---7h9---7h9---7h9---7h9-------7h9---7h9---7h9---7h9---7h9-------|
G|---------------------------------------------------------------------|
C|---------------------------------------------------------------------|

C|-----------------------------------------------------------|
G|-------------7h9---7h9---7h9-------9h10---9h10---10/12v----|
F|-7h9---7h9-------------------------------------------------|
C|-----7-----7-----7-----7-----7v---------7------7-----------|
G|-----------------------------------------------------------|
C|-----------------------------------------------------------|


[Chorus]

C|-0----0----0-------0----0----0-0-------0----0----0-------0----0----0-0----|
G|-0----0----0-------0----0----0-0-------0----0----0-------0----0----0-0----|
F|-2----2----2-------2----2----2-2-------0----0----0-------0----0----0-0----|
C|-0----0----0-------0----0----0-0-------0----0----0-------0----0----0-0----|
G|-0----0----0-------0----0----0-0------------------------------------------|
C|-0----0----0-------0----0----0-0-------5----5----5-------5----5----5-5----|

C|-------------------------------------------0-----0-----0--------0-----0-----|
G|-10----10----10-------10----10----10-10----10----10----10-------10----10----|
F|-9-----9-----9--------9-----9-----9--9-----11----11----11-------11b12-11b12-|
C|-11----11----11-------11----11----11-11----9-----9-----9--------9-----9-----|
G|-0-----0-----0--------0-----0-----0--0-----9-----9-----9--------9-----9-----|
C|-------------------------------------------9-----9-----9--------9-----9-----|

C|-0----0----0-------0----0----0-0-------0----0----0-------0----0----0-0----|
G|-0----0----0-------0----0----0-0-------0----0----0-------0----0----0-0----|
F|-2----2----2-------2----2----2-2-------0----0----0-------0----0----0-0----|
C|-0----0----0-------0----0----0-0-------0----0----0-------0----0----0-0----|
G|-0----0----0-------0----0----0-0------------------------------------------|
C|-0----0----0-------0----0----0-0-------5----5----5-------5----5----5-5----|

C|-------------------------------------------0-----0-----0--------0--|
G|-10----10----10-------10----10----10-10----10----10----10-------10-|
F|-9-----9-----9--------9-----9-----9--9-----11----11----11-------11-|
C|-11----11----11-------11----11----11-11----9-----9-----9--------9--|
G|-0-----0-----0--------0-----0-----0--0-----9-----9-----9--------9--|
C|-------------------------------------------9-----9-----9--------9--|


[Interlude]

C|------------------|
G|------------------|
F|-7----6----2----4-|
C|-0----0----0----0-| 
G|------------------|
C|-9----7----4----5-|(x3)


[Bridge]

C|-0-------0-0-0-0-------0-0-0-0-0-------0-0-0-0-------0-0-0-0---|
G|-0-------0-0-0-0-------0-0-0-0-0-------0-0-0-0-------0-0-0-0---|
F|-0-------0-0-0-2-------2-2-2-2-2-------2-2-2-0-------0-0-0-0---|
C|-2-------2-2-2-2-------2-2-2-2-0-------0-0-0-0-------0-0-0-0---|     
G|-2-------2-2-2-0-------0-0-0-0-0-------0-0-0-------------------|
C|-2-------2-2-2-----------------0-------0-0-0-5-------5-5-4-4-0-|(x3)

C|-0-------0-0-0-0-------0-0-0-0-0-------0-0-0-0-------0-0-0-0---|
G|-0-------0-0-0-0-------0-0-0-0-0-------0-0-0-0-------0-0-0-0---|
F|-0-------0-0-0-2-------2-2-2-2-2-------2-2-2-0-------0-0-0-0---|
C|-2-------2-2-2-2-------2-2-2-2-0-------0-0-0-0-------0-0-0-0---|
G|-2-------2-2-2-0-------0-0-0-0-0-------0-0-0-------------------|
C|-2-------2-2-2-----------------0-------0-0-0-5-------5-5-5-5---|


[Chorus]

C|-0----0----0-------0----0----0-0-------0----0----0-------0----0----0-0----|
G|-0----0----0-------0----0----0-0-------0----0----0-------0----0----0-0----|
F|-2----2----2-------2----2----2-2-------0----0----0-------0----0----0-0----|
C|-0----0----0-------0----0----0-0-------0----0----0-------0----0----0-0----|
G|-0----0----0-------0----0----0-0------------------------------------------|
C|-0----0----0-------0----0----0-0-------5----5----5-------5----5----5-5----|

C|-------------------------------------------0-----0-----0--------0-----0-----|
G|-10----10----10-------10----10----10-10----10----10----10-------10----10----|
F|-9-----9-----9--------9-----9-----9--9-----11----11----11-------11b12-11b12-|
C|-11----11----11-------11----11----11-11----9-----9-----9--------9-----9-----|
G|-0-----0-----0--------0-----0-----0--0-----9-----9-----9--------9-----9-----|
C|-------------------------------------------9-----9-----9--------9-----9-----|

C|-0----0----0-------0----0----0-0-------0----0----0-------0----0----0-0----|
G|-0----0----0-------0----0----0-0-------0----0----0-------0----0----0-0----|
F|-2----2----2-------2----2----2-2-------0----0----0-------0----0----0-0----|
C|-0----0----0-------0----0----0-0-------0----0----0-------0----0----0-0----|
G|-0----0----0-------0----0----0-0------------------------------------------|
C|-0----0----0-------0----0----0-0-------5----5----5-------5----5----5-5----|

C|-------------------------------------------0-----0-----0--------0--|
G|-10----10----10-------10----10----10-10----10----10----10-------10-|
F|-9-----9-----9--------9-----9-----9--9-----11----11----11-------11-|
C|-11----11----11-------11----11----11-11----9-----9-----9--------9--| 
G|-0-----0-----0--------0-----0-----0--0-----9-----9-----9--------9--|
C|-------------------------------------------9-----9-----9--------9--|(x2)


[Outro]

C|------------------
G|------------------
F|-7----6----2----4-
C|-0----0----0----0-     
G|------------------
C|-9----7----4----5-            
Submit corrections


        Friends And Enemies  lessons Hard to play? Try these video lessons and learn fast Friends And Enemies  lessons
        
↑ Back to top | Tablatures and chords for acoustic guitar and electric guitar, ukulele, drums are parodies/interpretations of the original songs. You may use it for private study, scholarship, research or language learning purposes only