» » »

Beyonce Knowles - Ave Maria Tabs

Artists:  A B C D E F G H I J K L M N O P Q R S T U V W X Y Z # 

Ave Maria Tabs

(ver. 1) Click to play this song!
Beyonce Knowles
 Rating:
4/5 (4 votes)

 Ave Maria lessons Tabs too difficult? Try these video lessons and learn fast
 
                                         Ave Maria - Beyonce

Tuning:standard - capo on the 8th fret. 

Intro: 

e|-------0------------0-------------4-------------7--------|
B|-----0---0--------0---0---------5---5---------9---9------|
G|---1-------1----1-------1-----4-------4-----9-------9----|
D|---------------------------------------------------------|
A|---------------------------------------------------------|
E|-0-----------0-------------0-------------0---------------|


e|-------5-------------5-------------0--------------0------|
B|-----5---5---------5---5---------0---0----------0---0----|
G|---6-------6-----5-------5-----1-------1------1-------1--|
D|---------------------------------------------------------|
A|---------------------------------------------------------|
E|-0-----------0-------------0--------------0--------------|


E                  A/C#            B
She was lost, in so many different ways
           A                  E    B
Out in the darkness with, no guide
E                     A/C#     B
I know the cost, of a losing hand
           A                  E    B
Never for the grace of God, oh I

       C#m 
I found Heaven on Earth
            B		
You are my last, my first
         A                  B
And then hear this voice inside

C#m  B  E

e|-------0-------------0-------------0-------------0------|
B|-----4---4---------4---4---------4---4---------4---4----|
G|---4-------4-----4-------4-----4-------4-----4-------4--|
D|--------------------------------------------------------|
A|----------------------------4-------------2-------------|
E|-0------------0-----------------------------------------|

A    E    B

E                          A/C#            B
I've been alone, when I'm surrounded by friends
               A             E    B
How could the silence be, so loud
       E                           A/C#    B
But I still go home, knowing that I've got you
             A                      E    B
There's only us when the lights go down

          C#m 
You are my Heaven on Earth
            B		
You are my hunger, my thirst
          A                B
I always hear this voice inside

        C#m  B  E
Singing Ave Maria

e|-------0-------------0-------------0-------------0------|
B|-----4---4---------4---4---------4---4---------4---4----|
G|---4-------4-----4-------4-----4-------4-----4-------4--|
D|--------------------------------------------------------|
A|----------------------------4-------------2-------------|
E|-0------------0-----------------------------------------|

A    E    B

(Bridge)

F#m                         C#m
Sometimes love can come and pass you by
F#m                    C#m
While your busy making plans
A                         Abm
Suddenly hit you and then you realize
                 F#m                B
It's out of your hands, baby you've got to understand

       C#m 
I found Heaven on Earth
            B		
You are my last, my first
         A                  B
And then hear this voice inside

C#m  B  E


e|-------0-------------0-------------0-------------0------|
B|-----4---4---------4---4---------4---4---------4---4----|
G|---4-------4-----4-------4-----4-------4-----4-------4--|
D|--------------------------------------------------------|
A|----------------------------4-------------2-------------|
E|-0------------0-----------------------------------------|

A   B   E

(repeat last bit)

************************************

    A/C#
e|-----------|
B|---2-------|
G|---2-------|
D|---2-------|
A|---4-------|
E|-----------|

************************************

| /   slide up
| \   slide down
| h   hammer-on
| p   pull-off
| ~   vibrato
| +   harmonic
| x   Mute note
| b   Bend
| pb  Pre-bend
| br  Bend release
| pbr Pre-bend release
| brb Bend release bend

************************************
            
Submit corrections


        Ave Maria lessons Hard to play? Try these video lessons and learn fast Ave Maria lessons
        
↑ Back to top | Tablatures and chords for acoustic guitar and electric guitar, ukulele, drums are parodies/interpretations of the original songs. You may use it for private study, scholarship, research or language learning purposes only