» » »

Ben Lee - Love Me Like The World Is Ending Tabs

Artists:  A B C D E F G H I J K L M N O P Q R S T U V W X Y Z # 

Love Me Like The World Is Ending Tabs

(ver. 2) Click to play this song!
Ben Lee
 Rating:
4/5 (6 votes)

 Love Me Like The World Is Ending lessons Tabs too difficult? Try these video lessons and learn fast
 
                
Capo 0n 5th fret - tab relative to capo



INTRO / 1ST VERSE:
E-|-------------------------------------------------------|
B-|-------------------------------------------------------| 
G-|-----4------4--------4-6-4------4------4--------4-6-4--|
D-|---2------2--------2----------2------2--------2--------|
A-|----------------------------0------0-------0-----------|
E-|-0------0-------0--------------------------------------|

1ST CHORUS CHORDS:
E-|----------------|----------------|----------------|------------|
B-|-2---4---5---2--|-2---4---5---2--|-2---4---5---2--|-2---4---0--| 
G-|-2---4---6---2--|-2---4---6---2--|-2---4---6---2--|-2---4---1--|
D-|-2---4---6---2--|-2---4---6---2--|-2---4---6---2--|-2---4---2--|
A-|-0---2---4---0--|-0---2---4---0--|-0---2---4---0--|-0---2---2--|
E-|----------------|----------------|----------------|---------0--|

2ND VERSE:
E-|-------------------------------------------------------|
B-|-------------------------------------------------------| 
G-|-----4------4--------4-6-4------4------4--------4-6-4--|
D-|---2------2--------2----------2------2--------2--------|
A-|----------------------------0------0-------0-----------|
E-|-0------0-------0--------------------------------------|

2ND CHORUS CHORDS:
E-|----------------|----------------|----------------|------------|------------|
B-|-2---4---5---2--|-2---4---5---2--|-2---4---5---2--|-2---4---0--|-2---4---0--| 
G-|-2---4---6---2--|-2---4---6---2--|-2---4---6---2--|-2---4---1--|-2---4---1--|
D-|-2---4---6---2--|-2---4---6---2--|-2---4---6---2--|-2---4---2--|-2---4---2--|
A-|-0---2---4---0--|-0---2---4---0--|-0---2---4---0--|-0---2---2--|-0---2---2--|
E-|----------------|----------------|----------------|---------0--|---------0--|

BRIDGE:
E-|-------------|-------------|--------------------|
B-|-5---4---2---|-5---4---2---|-0------------------| 
G-|-6---4---2---|-6---4---2---|-1------------------|
D-|-6---4---2---|-6---4---2---|-2--with below riff-|
A-|-4---2---0---|-4---2---0---|-2------------------|
E-|-------------|-------------|-0------------------|

E-|-------------------------------------------------------|
B-|-------------------------------------------------------| 
G-|-----4------4--------4-6-4------4------4--------4-6-4--|
D-|---2------2--------2----------2------2--------2--------|
A-|----------------------------0------0-------0-----------|(x 2)
E-|-0------0-------0--------------------------------------|

LAST CHORUS CHORDS:
E-|----------------|----------------|----------------|
B-|-2---4---5---2--|-2---4---5---2--|-2---4---5---2--| 
G-|-2---4---6---2--|-2---4---6---2--|-2---4---6---2--|
D-|-2---4---6---2--|-2---4---6---2--|-2---4---6---2--|
A-|-0---2---4---0--|-0---2---4---0--|-0---2---4---0--|
E-|----------------|----------------|----------------|

E-|------------|------------|------------|
B-|-2---4---0--|-2---4---0--|-2---4---0--|
G-|-2---4---1--|-2---4---1--|-2---4---1--|
D-|-2---4---2--|-2---4---2--|-2---4---2--|
A-|-0---2---2--|-0---2---2--|-0---2---2--|
E-|---------0--|---------0--|---------0--|
            
Submit corrections


        Love Me Like The World Is Ending lessons Hard to play? Try these video lessons and learn fast Love Me Like The World Is Ending lessons
        
↑ Back to top | Tablatures and chords for acoustic guitar and electric guitar, ukulele, drums are parodies/interpretations of the original songs. You may use it for private study, scholarship, research or language learning purposes only