» » »

Ben Lee - Love Me Like The World Is Ending Tabs

Artists:  A B C D E F G H I J K L M N O P Q R S T U V W X Y Z # 

Love Me Like The World Is Ending Tabs

(ver. 1) Click to play this song!
Ben Lee
 Rating:
3.7/5 (6 votes)

 Love Me Like The World Is Ending lessons Tabs too difficult? Try these video lessons and learn fast
 
                -------------------------------------------------------------------------------
                   Love me like the world is ending (live) – Ben Lee
-------------------------------------------------------------------------------

Tuning: Standard

   Intro x2                  
e|------------------------------|
B|------------------------------|
G|-----9-----9-----9---11---9---|
D|--77---777---777---7----7---7-|
A|------------------------------|
E|------------------------------|
   
Verse x4                    
e|------------------------------|---------------------------------|
B|------------------------------|---------------------------------|
G|-----9-----9-----9---11---9---|----9-----9-----9---11---9-------|
D|--77---777---777---7----7---7-|-00---000---000---0----0---0-----|
A|------------------------------|---------------------------------|
E|------------------------------|---------------------------------|
   
Chorus x4                      2nd chorus x2 (follow into bridge)
e|------------------------------|----------------------------|
B|-10-----10-----10-----10------|-10-----10-----10-----------|
G|--9------9------9------9------|--9------9------9-----------|
D|--0--x8--x—-x8--x--x8--0—x8---|--0—-x8--x--x8--7—-x16------|
A|--0------7------9------0------|--0------7------0-----------|
E|--x------x------x------x------|--x------x------x-----------|
   
Bridge- Palm mute x2 (add more emphasis on the bass note)
e|----------------------|
B|-10-----10-----10-----|
G|--9------9------9-----|
D|--x—-x8--x--x8--0—-x8-|
A|--9------7------x-----|
E|--x------x------x-----|

song structure

Intro
Verse
chorus
verse
chorus
bridge
verse
chorus
            
Submit corrections


        Love Me Like The World Is Ending lessons Hard to play? Try these video lessons and learn fast Love Me Like The World Is Ending lessons
        
↑ Back to top | Tablatures and chords for acoustic guitar and electric guitar, ukulele, drums are parodies/interpretations of the original songs. You may use it for private study, scholarship, research or language learning purposes only