» » »

Belly - Judas My Heart Tabs

Artists:  A B C D E F G H I J K L M N O P Q R S T U V W X Y Z # 

Judas My Heart Tabs

(ver. 2) Click to play this song!
Belly
 Rating:
4/5 (4 votes)

 Judas My Heart lessons Tabs too difficult? Try these video lessons and learn fast
 
                judas my heart

written by tanya donelly & tom gorman

---start---

<intro>
 e-------------------------------------------------------
 b-------------------------------------------------------
 g-------------------------------------------------------
 d---0h2-0-------0h2-0-------0-0h2-0---------------------
 a---------3-0---------3---3---------3-------------------
 e-----------------------4-------------3---0-3-4---0-4---

     [Am          Bm    Am]
 e----0-----------0-----0--------------------------------
 b----1-----------3-----1--------------------------------
 g----2--<slide>--4-----2--------------------------------
 d----2--< up  >--4-----2--------------------------------
 a----0-----------0-----0--------------------------------
 e-------------------------------------------------------


[Am/Bm/Am]

Am         C
   where i live,
             F                                  Am
   there's a blanket of gauze and it covers the scars
          C              F
   of the drunks who are hungry as ever


Am         C
   where i live,
             F                                  Am
   there's a blanket of sighs and it covers the stars
         C             F
   in my heart, i'm as hungry as ever
G              F
   this is the room where we met


Am         C
   where i live,
             F                                Am
   there's a lady who walks everywhere on her hands
           C               F
   doesn't trust where her feet want to take her


Am         C
   where i live,
                F                                Am
   there's this lady who walks everywhere on her hands
             C               F
   she don't trust where her feet want to take her


G              F
   this is the room where we met
G              F
   this is the dress i had on
E                  Am
   this is not the moment you fear
            F                     G
   when you wake up and no one is there


                 C    F
   low hangs the moon
               C      F
   inside this   room
                 C    F
   low hangs the moon
               C      F
   inside this   room


                 G                         C     F
   so that i'm a witness when you judas my heart
            C     F - [Am/Bm/Am]
   judas my heart


<solo>
 e-------------------------------------------------------
 b-------------------------------------------------------
 g-------------------------------------------------------
 d-------0h2-0---------0-0h2-0---0h2p0---0---------------
 a----0--------3-----3---------3-------3---0-----0-------
 e---------------3-----------------------------3---------

 e-------------------------------------------------------
 b----------------------------------------5h8--10s8-5----
 g------------------------------------5h7----------------
 d--------------------5-2-------2-5h7--------------------
 a----0-3-2-0---0-2-3-----5-3-5--------------------------
e-------------------------------------------------------


Am         C
   where i live,
             F                                  Am
   there's a blanket of sighs and it covers the stars
         C             F
   in my heart, i'm as hungry as ever


Am         C
   where i live,
        F                                  Am
   i'm afraid that i walk everywhere on my hands
           C              F
   i don't trust where my feet want to take me


G              F
   this is the room where we met
G              F
   this is the dress i had on
E                  Am
   this is not the moment i fear
          F                              G
   i say "i" instead of "she" now you're here


                 C    F
   low hangs the moon
               C      F
   inside this   room
                 C    F
   low hangs the moon
               C      F
   inside this   room


                 G                         C     F
   so that i'm a witness when you judas my heart
            C     F
   judas my heart, 
            C     F
   judas my heart,
            C     F
   judas my heart,


               C                              F
   can i get a witness when you do this to my heart again?
               C                              F
   can i get a witness when you do this to my heart again?
               C                         F
   can i get a witness when you judas my heart again


           C              F                   C
   where i live there's a lady who walks everywhere
          F                          C
   on her hands just like me doesn't trust
             F                      C
   where her feet want to take her again
             F                      C
   where her feet want to take her again
           F                      C     F C F
   and her feet want to take her again


       C
   she loves me
         F
   yeah, yeah, yeah

---end---
            
Submit corrections


        Judas My Heart lessons Hard to play? Try these video lessons and learn fast Judas My Heart lessons
        
↑ Back to top | Tablatures and chords for acoustic guitar and electric guitar, ukulele, drums are parodies/interpretations of the original songs. You may use it for private study, scholarship, research or language learning purposes only