Home » B » Bellamy Brothers »

Bellamy Brothers - Let Your Love Flow Bass

Artists:  A B C D E F G H I J K L M N O P Q R S T U V W X Y Z # 

Let Your Love Flow Bass

(ver. 1) Click to play this song!
Bellamy Brothers
 Rating:
4/5 (4 votes)
                GUITAR CAPO 1st

[INTRO]
  D           G     D           G    
G:--------|--------|--------|--------|
D:--------|--------|--------|--------|
A:--------|--------|--------|--------|
E:--------|--------|--------|--------|

[VERSE]
          D              D        G  
There's a reason for the sunshiny sky
          D              D          G
There's a reason why I'm feeling so high
            A                A                      D         D
Must be the season when that love light shines all around us
            D                D      G 
So let that feeling grab you deep inside
             D                  D          G 
And send you reeling where your love can't hide
            A                    A                        D       D7
And then go stealing through the moonlit nights with your lover

  D        D  G     D        D  G     A        A        D  G     D  G 
G:--4---48|--4-----|--4---48|--4-----|--------|--------|--4---48|--4-----|
D:---8-8--|---8-84-|---8-8--|---8-84-|884---4-|884---4-|---8-8--|---8-84-|
A:66------|66-----8|66------|66-----8|---8-8-8|---8-8-8|66------|66-----8|
E:--------|--------|--------|--------|--------|--------|--------|--------|

  D        D  G     D        D  G     A        A        D        D7   
G:--4---48|--4-----|--4---48|--4-----|--------|--------|--4---48|--4-----|
D:---8-8--|---8-84-|---8-8--|---8-84-|884---4-|884---4-|---8-8--|---8-84-|
A:66------|66-----8|66------|66-----8|---8-8-8|---8-8-8|66------|66-----8|
E:--------|--------|--------|--------|--------|--------|--------|--------|

[CHORUS]
              G
Just let your love flow like a mountain stream
             D
And let your love grow with the smallest of dreams
             A 					            D      D7
And let your love show and you'll know what I mean it's the season
         G   
Let your love fly like a bird on the wing
	     D
And let your love bind you to all living things
             A      				               D
And let your love shine and you'll know what I mean that's the reason.

  G        G        D        D        A        A        D        D7
G:--------|--------|--------|--------|--------|--------|--------|--------|
D:--------|--------|--------|--------|--------|--------|--------|--------|
A:--------|--------|--------|--------|--------|--------|--------|--------|
E:--------|--------|--------|--------|--------|--------|--------|--------|

  G        G        D        D        A        A        D        D
G:--------|--------|--------|--------|--------|--------|--------|--------|
D:--------|--------|--------|--------|--------|--------|--------|--------|
A:--------|--------|--------|--------|--------|--------|--------|--------|
E:--------|--------|--------|--------|--------|--------|--------|--------|


[VERSE]
          D              D          G
There's a reason for the warm sweet nights
 	      D              D      G
and there's a reason for the candle lights
	    A                 A                      D	     
must be the season when those love rights shine all around us
 	    D               D    G
So let that wonder take you into space
	    D         D        G
And lay you under its loving embrace
	      A	            A                         D           D7
Just feel the thunder as it warms your face you can't hold back

  D        D  G     D        D  G     A        A        D  G     D  G 
G:--4---48|--4-----|--4---48|--4-----|--------|--------|--4---48|--4-----|
D:---8-8--|---8-84-|---8-8--|---8-84-|884---4-|884---4-|---8-8--|---8-84-|
A:66------|66-----8|66------|66-----8|---8-8-8|---8-8-8|66------|66-----8|
E:--------|--------|--------|--------|--------|--------|--------|--------|

  D        D  G     D        D  G     A        A        D        D7   
G:--4---48|--4-----|--4---48|--4-----|--------|--------|--4---48|--4-----|
D:---8-8--|---8-84-|---8-8--|---8-84-|884---4-|884---4-|---8-8--|---8-84-|
A:66------|66-----8|66------|66-----8|---8-8-8|---8-8-8|66------|66-----8|
E:--------|--------|--------|--------|--------|--------|--------|--------|
            
Submit corrections

↑ Back to top | Tablatures and chords for acoustic guitar and electric guitar, ukulele, drums are parodies/interpretations of the original songs. You may use it for private study, scholarship, research or language learning purposes only