» » »

Behemoth - Sculpting The Throne Ov Seth Tabs

Artists:  A B C D E F G H I J K L M N O P Q R S T U V W X Y Z # 

Sculpting The Throne Ov Seth Tabs

(ver. 3) Click to play this song!
Behemoth
 Rating:
4/5 (4 votes)

 Sculpting The Throne Ov Seth lessons Tabs too difficult? Try these video lessons and learn fast
 
                (Intro)
-------------------------------------------------------------------------------
                             Behemoth - Sculpting The Throne Ov Seth
-------------------------------------------------------------------------------

e|-------------------------------------------------------------| x2
B|-------------------------------------------------------------|
G|-------9-------9-------9-------------9---------------10------|
D|-------------------------------------------------------------|
A|----7-----7h8-----7h8-----7h8-----7-----7h8-----7h8------7h8-|
E|-0-----------------------------0-------------0---------------|

e|-------------------------------------------------------------| x2
B|-------------------------------------------------------------|
G|------13-------13-------13------------13------------14-------|
D|-------------------------------------------------------------|
A|---11----11h12----11h12----11h12---11----11h12---11----11h12-|
E|-0-------------------------------0-------------0-------------|

e|-------------------------------------------------------------| x2
B|-------------------------------------------------------------|
G|-------9-------9-------9-------------9---------------10------|
D|-------------------------------------------------------------|
A|----7-----7h8-----7h8-----7h8-----7-----7h8-----7h8------7h8-|
E|-0-----------------------------0-------------0---------------|


| /  slide up
| \  slide down
| h  hammer-on
| p  pull-off
| ~  vibrato
| +  harmonic
| x  Mute note
===============================================================================
            
Submit corrections


        Sculpting The Throne Ov Seth lessons Hard to play? Try these video lessons and learn fast Sculpting The Throne Ov Seth lessons
        
↑ Back to top | Tablatures and chords for acoustic guitar and electric guitar, ukulele, drums are parodies/interpretations of the original songs. You may use it for private study, scholarship, research or language learning purposes only