» » »

Behemoth - Inflamed With Rage Tabs

Artists:  A B C D E F G H I J K L M N O P Q R S T U V W X Y Z # 

Inflamed With Rage Tabs

(ver. 1) Click to play this song!
Behemoth
 Rating:
4/5 (4 votes)

 Inflamed With Rage lessons Tabs too difficult? Try these video lessons and learn fast
 
                
Tuning:Standard
For all who don´t want to tune their guitar down!
Normally you play it in D,G,C,F,A,D!But i  made it for standard tuning!

Riff1:x3
e|--------------------------------(11)~--------------------------------------|
B|---------------------------------------------------------------------------|
G|---------------------------------------------------------------------------|
D|---------------------------------------------------------------------------|
A|-12-12-12-12-12--13-13-13-13-13-------12-12-12-12-12-----------------------|
E|-10-10-10-10-10--11-11-11-11-11-------10-10-10-10-10-13"-10"-12"-----------|

Riff2:x2
e|--------------------------------------------------------------(11)~--------|
B|---------------------------------------------------------------------------|
G|---------------------------------------------------------------------------|
D|---------------------------------------------------------------------------|
A|-12-12-12-12-12--13-13-13-13-13-12-12-12-12-12--13-13-13-13-13-------------|
E|-10-10-10-10-10--11-11-11-11-11-10-10-10-10-10--11-11-11-11-11-------------|

Riff3:x2
e|----------------------------------(11)~------------------------------------|
B|---------------------------------------------------------------------------|
G|---------------------------------------------------------------------------|
D|---------------------------------------------------------------------------|
A|---------------------------------------------------------------------------|
E|-13-12-13-12-10-12-13-13-12-13-12-----13-12-13-12-10-12-13-11-10-11-10-8-10|
Pm             . . .. .                             ........

Riff4:x3
e|------------------------------(11)~----------------------------------------|
B|---------------------------------------------------9p8p6-9p8p6-8p6h5-8p6h5-|
G|---------------------------------------------------------------------------|
D|---------------------------------------------------------------------------|
A|---------------------------------------------------------------------------|
E|-11-10-11-10-8-10-11-10-11-10------11-10-11-10-8-10------------------------|
                                                    -........Very Fast......-
Riff1:x2
Riff2:x2

Fill1:x1
e|---------(11)~-------------|< Use Tremolo and push it down and up!
B|---------------------------|
G|---------------------------|
D|---------------------------|
A|---------------------------|
E|---------------------------|
Riff3:x2
Riff4:x3

Riff5:x2
e|---------------------------------------------------------------------------|
B|---------------------------------------------------------------------------|
G|---------------------------------------------------------------------------|
D|---------------------------------------------------------------------------|
A|--------------------------------------------------------------4-3-2-1-0----|
E|-13-12-13-12-10-12-11-10-11-10-8-10-13-12-13-12-10-12-13-12-10-------------|

Riff1:x2
Riff2:x2

Fill1:x1
e|---------(11)~-------------|< Use Tremolo and push it down and up!
B|---------------------------|
G|---------------------------|
D|---------------------------|
A|---------------------------|
E|---------------------------|


Guit1-Riff6:x3
e|---------------------------------------------------------------------------|
B|-----------8h7h5-----------------------------------------------------------|
G|------5h7h8-----8h7h5------------------------------------------------------|
D|-5h7h8---------------------------------------------------------------------|
A|---------------------------------------------------------------------------|
E|---------------------------------------------------------------------------|

Guit2-Riff6:x1
e|---------------------------------------------------------------------------|
B|---------------------------------------------------------------------------|
G|---------------------------------------------------------------------------|
D|---------------------------------------------------------------------------|
A|-12---------13-------12----------------------------------------------------|
E|-10---------11-------10----------------------------------------------------|

Riff7:x1
e|---------------------------------------------------------------------------|
B|---------------------------------------------------------------------------|
G|---------------------------------------------------------------------------|
D|---------------------------------------------------------------------------|
A|--------------------------------------------------------------4-3-2-1-0-x1-|
E|-13-12-13-12-10-12-11-10-11-10-8-10-13-12-13-12-10-12-13-12-10-------------|

e|---------------------------------------|
B|---------------------------------------|
G|---------------------------------------|
D|---------------------------------------|
A|---------------------------------------|
E|-13-12-9-12-13-9/10/12/13/12/10/9--x2--|

Riff5:x2

End Fill:x1
e|-----------|
B|-----------|
G|-----------|
D|-77777-----|
A|-55555-----|
E|-----------|


| /  slide up
| \  slide down
| h  hammer-on
| p  pull-off
| ~  vibrato
| +  harmonic
| x  Mute note
            
Submit corrections


        Inflamed With Rage lessons Hard to play? Try these video lessons and learn fast Inflamed With Rage lessons
        
↑ Back to top | Tablatures and chords for acoustic guitar and electric guitar, ukulele, drums are parodies/interpretations of the original songs. You may use it for private study, scholarship, research or language learning purposes only