» » »

Beethoven - Beethovens 9th Syphony Tabs

Artists:  A B C D E F G H I J K L M N O P Q R S T U V W X Y Z # 

Beethovens 9th Syphony Tabs

(ver. 1) Click to play this song!
Beethoven
 Rating:
4/5 (4 votes)

 Beethovens 9th Syphony lessons Tabs too difficult? Try these video lessons and learn fast
 
                e----------------------------------------------------------------------|
B----------------------------------------------------------------------|
G----------------------------------------------------------------------|
D----0--0--1--3--3--1--0---------------------0-0-----------------------|
A--------------------------------3--1--1--3--------------3-3-----------|
E----------------------------------------------------------------------|

e----------------------------------------------------------------------|
B----------------------------------------------------------------------|
G----------------------------------------------------------------------|
D--0--0--1--3--3--1--0--------------------0----------------------------|
A------------------------------3--1--1--3-------3-----1--1-------------|
E----------------------------------------------------------------------|

e----------------------------------------------------------------------|
B----------------------------------------------------------------------|
G----------------------------------------------------------------------|
D------0---------------0h1p0-----------0h1p0---------------------------|
A-3--(3)-----1--3--------------1-----3--------------3--1--3------------|
E-------------------------------------------------------------------0--|

e----------------------------------------------------------------------|
B----------------------------------------------------------------------|
G----------------------------------------------------------------------|
D-0--0--0--1--3--3--1--0--------------------0--------------------------|
A---------------------------------3--1--1--3-------3-----1--1----------|
E----------------------------------------------------------------------|
            
Submit corrections


        Beethovens 9th Syphony lessons Hard to play? Try these video lessons and learn fast Beethovens 9th Syphony lessons
        
↑ Back to top | Tablatures and chords for acoustic guitar and electric guitar, ukulele, drums are parodies/interpretations of the original songs. You may use it for private study, scholarship, research or language learning purposes only