» » »

Beck - Golden Age Tabs

Artists:  A B C D E F G H I J K L M N O P Q R S T U V W X Y Z # 

Golden Age Tabs

(ver. 2) Click to play this song!
Beck
 Rating:
4/5 (4 votes)

 Golden Age lessons Tabs too difficult? Try these video lessons and learn fast
 
                
Song layout:

Intro
Verses
Chorus
Verses
Outro

Verse Chords:

       E       F#m      A

E|-----0-------2--------0-----------------------------------------------------
A|-----0-------2--------2-----------------------------------------------------
D|-----1-------2--------2-----------------------------------------------------
G|-----2-------4--------2-----------------------------------------------------
B|-----2-------4--------0-----------------------------------------------------
e|-----0-------2--------x-----------------------------------------------------

Chorus chords:

       D       A       F#m       A

E|-----2-------0--------2--------0---------------------------------------------
A|-----3-------2--------2--------2---------------------------------------------
D|-----2-------2--------2--------2---------------------------------------------
G|-----0-------2--------4--------2---------------------------------------------
B|-----x-------0--------4--------0---------------------------------------------
e|-----x-------x--------2--------x---------------------------------------------

Intro riff:

E|-----4----7----4----0---------0---------0------------------------------------
A|-------------------------2---------------------------------------------------
D|-----------------------------------2---------1-------------------------------
G|-----------------------------------------------------------------------------
B|-----------------------------------------------------------------------------
e|-----------------------------------------------------------------------------

The intro goes roughly like this:

Guitar 1:
E|--------|--------|--------|--------|--------|--------------------------------
A|--------|--------|--------|--------|--------|--------------------------------
D|-VERSE--|-VERSE--|-VERSE--|-VERSE--|-VERSE--|-VERSE--------------------------
G|-CHORDS-|-CHORDS-|-CHORDS-|-CHORDS-|-CHORDS-|-CHORDS-------------------------
B|--------|--------|--------|--------|--------|--------------------------------
e|--------|--------|--------|--------|--------|--------------------------------

Guitar 2:
E|--------|--------|--------|--------|--------|--------------------------------
A|--------|--------|--------|--------|--------|--------------------------------
D|--------|--------|-INTRO--|--------|-INTRO--|--------------------------------
G|--------|--------|--RIFF--|--------|--RIFF--|--------------------------------
B|--------|--------|--------|--------|--------|--------------------------------
e|--------|--------|--------|--------|--------|--------------------------------


(There's a little bit of slide guitar I didn't bother to figure out.)

The verses and choruses are pretty easy to figure out.
The outro is very similar to the intro, nothing too weird.

Have fun.
            
Submit corrections


        Golden Age lessons Hard to play? Try these video lessons and learn fast Golden Age lessons
        
↑ Back to top | Tablatures and chords for acoustic guitar and electric guitar, ukulele, drums are parodies/interpretations of the original songs. You may use it for private study, scholarship, research or language learning purposes only