» » »

Beck - New Pollution Tabs

Artists:  A B C D E F G H I J K L M N O P Q R S T U V W X Y Z # 

New Pollution Tabs

(ver. 1) Click to play this song!
Beck
 Rating:
4/5 (4 votes)

 New Pollution lessons Tabs too difficult? Try these video lessons and learn fast
 
                Intertpret: Beck	
Titel: New Pollution

normal tuning

Intro:
------------------------------
------------------------------
------------------------------
----9---9--9-9-9----9---9-----   You have to find the stringing out
------------------------------
------------------------------
düdüd düdüdüdü düd düdü düd dü...

--------------------------------------------------------------
--------------------------------------------------------------
---------1h3---------1h3------------1----------1h3------------
---6/3---------6/3---------6-----3-------6/3---------6/3------
--------------------------------------------------------------
--------------------------------------------------------------

Chorus:
--1h3----------1h3-----------1h3-----------1-----------1h3-----------------
---------6/3----------6/3----------6-----3------6/3-----------6/3----------

--1h3---------1h3------------1---------1h3---------------------
--------6/3----------6----3------6/3---------6/3---------------

Strangly part from  2:07-2:11

---5/6-7-5------
---6/7-8-5------
----------------
----------------
----------------
----------------


Last Chorus:
--------------------------------------------------------------
--------------------------------------------------------------
---------1h3---------1h3------------1----------1h3------------
---6/3---------6/3---------6-----3-------6/3---------6/3------
--------------------------------------------------------------
--------------------------------------------------------------

A great song enjoy it!!!!!!!
            
Submit corrections


        New Pollution lessons Hard to play? Try these video lessons and learn fast New Pollution lessons
        
↑ Back to top | Tablatures and chords for acoustic guitar and electric guitar, ukulele, drums are parodies/interpretations of the original songs. You may use it for private study, scholarship, research or language learning purposes only