Home » B » Beck »

Beck - Moon On The Water Tabs

Artists:  A B C D E F G H I J K L M N O P Q R S T U V W X Y Z # 

Moon On The Water Tabs

(ver. 1) Click to play this song!
Beck
 Rating:
4/5 (4 votes)
                Genre:Anime
Tuning:standard
i tabbed this for easier version i heard this just today it sounds pretty cool so i made 
the other tab are hard to do but i made an easier and it sounds like it hope u like my work....
intro:                                          do this 2x
e|------------------------------------------- --------------------|
B|----3------------6-------------4--------2-- -----3--------------|
G|-------2s1----------4s3------4--------2---- --2----4------------|
D|-0-------------0----------0---------0------ -0-------0----------|
A|------------------------0---------0-------- 0-------------------|
E|------------------------------------------- --------------------|


chords used:

   E   C#m  B   D   A
e|--------------2-----------------------------|
B|------5---4---3--2--------------------------|
G|-1----6---4---2--2--------------------------|
D|-2----6---4------2--------------------------|
A|-2----4---2---------------------------------|
E|--------------------------------------------|

Verse:1
E          C#m          B
Full moon sways...
A                  D              A      A
Gently in the night of one fine day.
E  C#m      B
On my way...
A               D                 A      A
Looking for a moment with my dear.
E    C#m     B
Full moon waves.
A                D           A        A
Slowly on the surface of the lake.
E    C#m    B
You were there...
A               D                   A   A
Smilling in my arms for all those years.
E    C#m    B
What a fool...
A                 D
I don't know 'bout tomorrow...
               A     A
What it's like to be.

(same pattern)and the pattern goes like this-  E-C#m-B-A-D-A-A
  (and along with the intro hope you like it)


thanks hope you like it
            
Submit corrections

↑ Back to top | Tablatures and chords for acoustic guitar and electric guitar, ukulele, drums are parodies/interpretations of the original songs. You may use it for private study, scholarship, research or language learning purposes only