» » »

Beck - Gamma Ray Tabs

Artists:  A B C D E F G H I J K L M N O P Q R S T U V W X Y Z # 

Gamma Ray Tabs

(ver. 2) Click to play this song!
Beck
 Rating:
4/5 (4 votes)

 Gamma Ray lessons Tabs too difficult? Try these video lessons and learn fast
 
                A Gamma Ray acoustic version i put together.

Listen to the song for the rhythm.
play this riff twice then start the chords.
 Main Riff
E||-----------------------|--------------------------|-----------------------|
B||-----------------------|--------------------------|-----------------------|
G||-----------------------|--------------------------|-----------------------|
D||-----------------------|--------------------------|-----------------------|
A||--------------------5--|-----5--5--5--5--5--5--5--|-----------------------|
E||--0----0----0--0-------|--------------------------|--3----3----3--3----5--|

E||--------------------------|
B||--------------------------|
G||--------------------------|
D||--------------------------| X2
A||--------------------------|
E||-----5--5--5--5--5--5--5--|
    

Play these chords to the same rhythm as the riff above

  Main riff- Chords
    E     D     G     A
e|--0-----2-----------0------------------------------------|
B|--0-----3-----------2------------------------------------|
G|--0-----2-----0-----2------------------------------------|
D|--2-----0-----0-----2------------------------------------|
A|--2-----------2-----0------------------------------------|
E|--0-----------3-----0------------------------------------|

Rhythm changes a bit here so try and put it together by listening.
 Verse
     D     G     C
e|---2-----------0--------------------------------------------|
B|---3-----------1--------------------------------------------|
G|---2-----0-----0--------------------------------------------|
D|---0-----0-----2--------------------------------------------|
A|---------2-----3--------------------------------------------|
E|---------3-----0--------------------------------------------|

 Chorus- same as the main riff except an added B afterwords. 
    E     D     G     A
e|--0-----2-----------0------------------------------------|
B|--0-----3-----------2------------------------------------|
G|--0-----2-----0-----2------------------------------------| X4
D|--2-----0-----0-----2------------------------------------|
A|--2-----------2-----0------------------------------------|
E|--0-----------3-----0------------------------------------|

          B
e|--------------------|
B|--------4-----------|
G|--------4-----------| X16
D|--------4-----------| 
A|--------2-----------|
E|--------------------|

There you go.
I'm giving you the pieces, just put them together.
it's a Pretty simple song.
            
Submit corrections


        Gamma Ray lessons Hard to play? Try these video lessons and learn fast Gamma Ray lessons
        
↑ Back to top | Tablatures and chords for acoustic guitar and electric guitar, ukulele, drums are parodies/interpretations of the original songs. You may use it for private study, scholarship, research or language learning purposes only