» » »

Beck - Fume Tabs

Artists:  A B C D E F G H I J K L M N O P Q R S T U V W X Y Z # 

Fume Tabs

(ver. 2) Click to play this song!
Beck
 Rating:
4.3/5 (15 votes)

 Fume lessons Tabs too difficult? Try these video lessons and learn fast
 
                Guitar 1 :

Chorus :
    D                            G                                                       
E |-2--------2--2--2--2--2----|--3--------3--3--3--3--3----|
B |-3--------3--3--3--3--3----|--0--------0--0--0--0--0----|
G |-2--------2--2--2--2--2----|--0--------0--0--0--0--0----|
D |-0--------0--0--0--0--0----|--0--------0--0--0--0--0----|
A |---------------------------|--2--------2--2--2--2--2----|
E |---------------------------|--3--------3--3--3--3--3----|
  
  D                            G           F
--2--------2--2--2--2--2----|--3--3--3--3--1--1--1--1--|
--3--------3--3--3--3--3----|--0--0--0--0--1--1--1--1--|
--2--------2--2--2--2--2----|--0--0--0--0--2--2--2--2--|
--0--------0--0--0--0--0----|--0--0--0--0--3--3--3--3--|
----------------------------|--2--2--2--2--3--3--3--3--|
----------------------------|--3--3--3--3--1--1--1--1--|            x2

  A
--0-----0--0--0--0--0--0----|--0----|
--2-----2--2--2--2--2--2----|--2----|
--2-----2--2--2--2--2--2----|--2----|
--2-----2--2--2--2--2--2----|--2----|
--0-----0--0--0--0--0--0----|--0----|
----------------------------|-------|

Outro :
|---------------------------|--2--2--2--2--2--2--2--2--|
|-------------2--2--2--2----|--3--3--3--3--3--3--3--3--|
|-------------2--2--2--2----|--2--2--2--2--2--2--2--2--|
|-4--4--4--4--2--2--2--2----|--0--0--0--0--0--0--0--0--|
|-4--4--4--4--0--0--0--0----|--------------------------|
|-2--2--2--2----------------|--------------------------|




Guitar Dropped D :

Chorus :                                                         
e|------|-------|-------|---------|
B|------|-------|-------|---------|
G|------|-------|-------|---------|
D|-0----|--5----|--0----|--5--3---|
A|-0----|--5----|--0----|--5--3---|
D|-0----|--5----|--0----|--5--3---|
               
e|-------|-------|
B|-------|-------|
G|-------|-------|
D|--7L---|--7----|
A|--7L---|--7----|
D|--7L---|--7----|

Outro
|---------------------------|---------------------------|
|---------------------------|---------------------------|
|---------------------------|---------------------------|
|-4--4--4--4--7--7--7--7----|--0--0--0--0--0--0--0--0---|
|-4--4--4--4--7--7--7--7----|--0--0--0--0--0--0--0--0---| x8
|-4--4--4--4--7--7--7--7----|--0--0--0--0--0--0--0--0---|



Guitar 2 :

   0:15                                          
E |--21-------|
B |-----------|
G |-----------|
D |-----------|
A |-----------|
E |-----------|

Chorus : 
-----------------------|------------------------|
-7-9-7-9-7-------------|------------------------|
-7-9-7-9-7-------------|--7-9-7-9-7-------------|
-----------------------|--7-9-7-9-7-------------|
-----------------------|------------------------|
-----------------------|------------------------|
            
Submit corrections


        Fume lessons Hard to play? Try these video lessons and learn fast Fume lessons
        
↑ Back to top | Tablatures and chords for acoustic guitar and electric guitar, ukulele, drums are parodies/interpretations of the original songs. You may use it for private study, scholarship, research or language learning purposes only